Guitar Tabs for Pink Floyd - The Thin Ice

Pink Floyd - The Thin Ice

Gilmour Part

(C)               (Am)
Mamma loves her baby

(F)               (G)
and daddy loves you too

(C)                    (Am)
and the sea may look warm to you babe

(F)                    (G)
and the sky may look blue

(C)  (G)  (F)  (C/G)  (Am)
Oooooooooooh babe

(C)  (G)  (F)  (C/G)  (Am)    (Am7)  (Am6)
Oooooooh baby blue

(C)  (G)  (F)  (C)  (Am)  (D7)  (G)
Ooooooooooh ooooooh babe

E|--------------
B|--------------
G|--------------
D|--------------
A|-----0--2--3--
E|--3-----------

Roger Part

(C)                (Am)
If you should go skating

       (F)                        (G)
On the thin ice of modern life

(C)                       (Am)
Dragging behind you the silent reproach

     (F7M)                 (G)
Of a million  tear stained eyes

(C)                         (Am)
Dont be surprised, when a crack in the ice

(F)                 (G)
Appears under your feet

         (C)                     (Am)
You slip out of your depth and out of your mind

         (F)                        (G)
With your fear flowing out  behind you

Ending

E|-----------------------------------------
B|-----------------------------------------
G|--9-----7-----10----9--------------------  2x
D|--9-----7-----10----9-----7-----5-----7-- 
A|--7-----5-----8-----7-----7-----5-----7--
E|--------------------------5-----3-----5--

E|-----------------------------------------------
B|-----------------------------------------------
G|--9-----7-----10----9-----9-----------------5--
D|--9-----7-----10----9-----9-----4-----5-----5--
A|--7-----5-----8-----7-----7-----4-----5-----3--
E|--------------------------------2-----3--------

----------------------------------------------------------------------------------------------------
Chords

    C     Am    F     G
E|--0-----0-----1-----3--
B|--1-----1-----1-----3--
G|--0-----2-----2-----0--
D|--2-----2-----3-----0--
A|--3-----0-----3-----2--
E|--------------1-----3--

   C/G   Am7   Am6    D7
E|--0-----0-----------2--
B|--1-----1-----5-----1--
G|--0-----0-----5-----2--
D|--2-----2-----4-----0--
A|--3-----0--------------
E|--3-----------5--------
tabs and chords, guitar tabs, music transcription, music technology, deep learning, music information retrieval, transcribe into tabs & chords, chordify, music renditions, songsterr, reverbnation, tabulature, bollywood chords, ultimate guitar, yousician, guitar lessons, acoustic guitar, electric guitar, guitar tuner, 911 tabs