Bass Tabs for Pink Floyd - The Happiest Days Of Our Lives

Pink Floyd - The Happiest Days of Our Lives

***DROP D***

Intro
G|--------------------------------------------------------------------------------------------------
D|--------------------------------------------------------------------------------------------------
A|---5\-3/-5\-3/-5\-3/-5\-3/5-----5------5/-3\-5/-3\-5/-3\-5/-3\5-----5--5--5--3--3--3--1--1--1--0--
D|_-------------------------------------------------------------------------------------------------

G|-----------------------------------------------------------------------------------------------
D|-----------------------------------------------------------------------------------------------
A|-----------------------------------------------------------------------------------------------
D|--5-----------5--------------5--------------5--------------5--7-----------5--7-----------5--7--

G|--------------------------------------------------------------------------------------------------
D|--------------------------------------------------------------------------------------------------
A|--------------------------3-----------------------------------------------------------------------
D|--5--7-----------5--7--------------5--7--------7--------5--7-----7--5--3-----3--5--7-----7--5--2--

G|-----------------------------------------------
D|-----------------------------------------------
A|-----------------------------------------------
D|--5--7-----------5--7--------5--7--------5--7--

G|-----------------------------------------------------------------------------------------
D|-----------------------------------------------------------------------------------------
A|--5-----5-----5-----5--3--1-----1-----1-----1--0-----------------------------------------
D|--------------------------------------------------5-----5-----5------5/10-------------10\

Uhh Uhh Part
G|--------------------------------------------------------------------------
D|--------------------------------------------------------------------------
A|--------------------------------------------------------------------------
D|--3-----------8-----------3-----------8-----------10----------10----------

tabs and chords, guitar tabs, music contests, music covers, songsterr, reverbnation, renditions, tabulature, bollywood chords, ultimate guitar, yousician, guitar lessons, torrins, fender, gibson, acoustic guitar, electric guitar, youtube covers, gootar, guitar tuner, A-Z tabs, 911 tabs