Bass Tabs for Pink Floyd - Hey You

Pink Floyd - Hey You

Intro
G|--------------9--9--------------------------------16----------
D|---------7/9-----------------------------14p13h15-------------
A|---2/7--------------7---5\------14p13h14--------------5\------
E|-----------------------------12--------------------------0/5--

Slow Verse
G|--------------------------------------------------------------
D|-----------------------------------5--------------------------
A|--------------------------------5-----5--3-----2--------------
E|---0/----7\---0------0/---7---------------------------5\-0/5--

Fast Verse
G|--------------------------------------------------------------------------------
D|--------------------------------------------------------------------------------
A|--------------------------------------------------------------------------------
E|--0-----0--0-----0-----0--0-----0-----0--0---2/7-----7--7-----7-----7--7------7\

G|-----------------------------------------------------------------------------
D|-----------------------------------------------------------------------------
A|-----------------------------------------------------------------------------
E|--0-----0--0-----0-----0--0-----0-----0--0---2/7-----7--7--------7-----7--7--

G|-----------------------------------------------------------------
D|-----------------------------------------------------------------
A|--5--------5--5--------5--3--------3--3--------2-----------------
E|--------------------3------------------------------------5/---0--

Guitar Solo
G|-----------------------------------------------------------------------------------
D|-----------------------------------------------------------------------------------
A|-----------------------------------0-----0--0-----0--0-----0--0--2--0--------------
E|--0-----0--0-----0--0-----0--0-----------------------------------------3--0--2--3--

G|--------------------------------------------------------------------------------
D|-----------------------------------------------------------------7--------------
A|-----------------------------------------------0-----0--0-----7--------0--------
E|--0-----0--0-----0--0-----0--0-----3--0--2--3-----------------------0-----2--3--

G|--------------------------------------------------------------------------
D|--------------------------------------------------------------------------
A|-----------------------------------0-----0--0-----0--0-----0--0-----------
E|--0-----0--0-----0--0-----0--0--------------------------------------3--0~~

Pos Guitar Solo
G|-----------------------------------------------------------------------------------------------------
D|--------5-----------------------------5--------------------------------------------------------------
A|--3--5-----5--3-----3--3-----3--3--5-----5--3-----3--3-----3--3--5-----5--3-----3--3-----3--3-----5--
E|--------------------------------------------------------------------3--------------------------------

Bass Solo
G|---------------9/16----/16---/16---/16\---14\--------------------------------16\------------------------
D|--------------------------------------------------------------------14p13h14----------------------------
A|--7--------------------------------------------------------14p13h14-----------------5/---------------12\
E|------0/5-----------------------------------------12p11h12-------------------------------0------2/------

Last Verse
G|-----------------------------------------------------------------------------------------------------
D|-----------------------------------------------------------------------------------------------------
A|--------------------------------------------------------------------------------------------------5--
E|--0-----0--0-----0--0---2/7-----7--7------7\0-----0--0-----0--0------2/7-----7--7-----7--7--8--9-----

G|-----------------------------------------
D|-----------------------------------------
A|--5--5--------5--3---------2/---0--------
E|-----------3--------------------------0--



tabs and chords, guitar tabs, music transcription, music technology, deep learning, music information retrieval, transcribe into tabs & chords, chordify, music renditions, songsterr, reverbnation, tabulature, bollywood chords, ultimate guitar, yousician, guitar lessons, acoustic guitar, electric guitar, guitar tuner, 911 tabs