Guitar Tabs for Pink Floyd - Breathe (in The Air)

Pink Floyd - Breathe (In The Air)

Intro

(Em9)  (A)  (A4)  (A)  8x

(C7M)  (Bm7)  (F7M)  (G7M)  (D7(9+))  (D7(9-))

Intro Harmonics

(Use the SLIDE)

E|--12-------------12-------------14----10/12----------------
B|--12----12/14----12----12/14----12----12/14----12----12/14-
G|--12----12/14----12----12/14----12----12/14----12----12/14-
D|-----------------------------------------------------------
A|-----------------------------------------------------------
E|-----------------------------------------------------------

E|-----------------------------------------------
B|--12----12/13-12----12/13\10----8------6\-4/5--
G|-----------------------------------------------
D|-----------------------------------------------
A|-----------------------------------------------
E|-----------------------------------------------

1st Part

  (Em9)                 (A)  (A4)  (A)
Breathe, breathe in the air

(Em9)               (A)  (A4)  (A)
Don't be afraid to care

(Em9)                 (A)  (A4)  (A)
Leave but don't leave me

 (Em9)                     (A)  (A4)  (A)
Look around and choose your own ground

      (C7M)
For long you live and high you fly

      (Bm7)
And smiles you'll give and tears you'll cry

   (F7M) 
And all you touch and all you see
   (G7M)             (D7(9+)) (D7(9-))
Is all your life will ever be

2nd Part

(Em9)                 (A)  (A4)  (A)
Run, run rabbit run

(Em9)                     (A)  (A4)  (A)
Dig that hole, forget the sun

(Em9)                        (A)  (A4)  (A)
And when at last the work is done

(Em9)                            (A)  (A4)  (A)
Don't sit down it's time to dig another one

   (C7M)
For long you live and high you fly

   (Bm7)  
But only if you ride the tide

    (F7M)  
And balanced on the biggest wave

    (G7M)        (D7(9+)) (D7(9-))   (Em9)  
You race toward an early grave   

Licks that can be used

E|---------9\7------7\5------5\
B|-----------------------------
G|---7/9--------7--------6-----
D|-----------------------------
A|-----------------------------
E|-----------------------------

E|-----0--------------------
B|--2-----2-----3---2h3--2--
G|--2-----------------------
D|--2-----------------------
A|--------------------------
E|--------------------------

----------------------------------------------------------------------------------------
Chords
 
    A     A4    Bm7   C7M
E|--0-----0-----2-----0--
B|--2-----3-----3-----0--
G|--2-----2-----2-----0--
D|--2-----2-----4-----2--
A|--0-----0-----2-----3--
E|-----------------------

  D7(9+) D7(9-) Em9  F7M   G7M
E|--------------0--------------
B|--5-----3-----0-----1-----3--
G|--4-----4-----0-----2-----4--
D|--3-----3-----4-----2-----4--
A|--4-----4-----2--------------
E|--------------0-----1-----3--


tabs and chords, guitar tabs, music transcription, music technology, deep learning, music information retrieval, transcribe into tabs & chords, chordify, music renditions, songsterr, reverbnation, tabulature, bollywood chords, ultimate guitar, yousician, guitar lessons, acoustic guitar, electric guitar, guitar tuner, 911 tabs