Ukulele Tabs for Lithium Classical

(/) Slide Up  (\) Slide Down  (h) Hammer On  (p) Pull Off  (b) Bend (r) Release (v) Vibrato (x) Muted

Tabs for Song : 
BPM : 200

Song lyrics here
A|--3--------0--------1--------0--------1--------0--------------0--
E|--------0--------2--------0--------2--------0--------1-----0-----
C|-----0--------2--------0--------3--------0--------------0--------
G|--------------------------------------------------2--------------

A|--7--------5--------3-----------------------------------------------------
E|--------0--------0--------0-----------------1--------1--------0--------0--
C|-----0--------0--------0-----------------2--------2--------0--------0-----
G|-----------------------------0--------0--------0--------0--------0--------

A|--7--------5--------3-----------------------------------------------------
E|--------0--------0--------0-----------------1--------1--------0--------0--
C|-----0--------0--------0-----------------2--------2--------0--------0-----
G|-----------------------------0--------0--------0--------0--------0--------

A|--3-----------0--3--------0-----2-----------0--2--------0-----
E|--------0-----------0-----------------0-----------0-----------
C|-----0-----------------0-----------0-----------------0--------
G|-----------0-----------------0-----------0-----------------0--

A|--2--2--2--3--3--3--5--5--5--7--7--7--7--
E|-----------------------------------------
C|-----------------------------------------
G|--------------------------------------

A|--------7--------5--------3-----------------------------------------------------
E|--------------0--------0--------0-----------------1--------1--------0--------0--
C|-----------0--------0--------0-----------------2--------2--------0--------0-----
G|-----------------------------------0--------0--------0--------0--------0--------

A|--7--------5--------3-----------------------------------------------------
E|--------0--------0--------0-----------------1--------1--------0--------0--
C|-----0--------0--------0-----------------2--------2--------0--------0-----
G|-----------------------------0--------0--------0--------0--------0--------

A|--2--2--2--3--3--3--5--5--5--7--
E|--------------------------------
C|--------------------------------
G|--------------------------------

A|-----------7--------5--------3-----------------------------------------------------
E|-----------------0--------0--------0-----------------1--------1--------0--------0--
C|--------------0--------0--------0-----------------2--------2--------0--------0-----
G|--------------------------------------0--------0--------0--------0--------0--------

A|--7--------5--------3-----------------------------------------------------
E|--------0--------0--------0-----------------1--------1--------0--------0--
C|-----0--------0--------0-----------------2--------2--------0--------0-----
G|-----------------------------0--------0--------0--------0--------0--------

Song lyrics here
A|--
E|--
C|--
G|--

Paste any tab in acousterr's tab maker and we'll play it !!!
Now supports capo and sound effects for vibrato/pull-off/hammer/bends/mutes etc !!! Checkout help section
tabs and chords, guitar tabs, music transcription, music technology, deep learning, music information retrieval, transcribe into tabs & chords, chordify, music renditions, songsterr, reverbnation, tabulature, bollywood chords, ultimate guitar, yousician, guitar lessons, acoustic guitar, electric guitar, guitar tuner, 911 tabs