Guitar Tabs for Phrygian Triplet Variation (mclaughlin)

(/) Slide Up  (\) Slide Down  (h) Hammer On  (p) Pull Off  (b) Bend (r) Release (v) Vibrato

Tabs for Song : 

Song lyrics here
E|--------------------------------------------------------------------------------------------------------------
B|-----------------------------------------------------------------------------------------------------8-----8--
G|-----------------------------------------------7-----7-----------9-----9--7-----7--10-7--10-9-----9-----9-----
D|-----------9-----9--7-----7--10-7--10-9-----9-----9-----10-7--10----10-------9-----------------10-------------
A|--10-7--10----10-------8-----------------10-------------------------------------------------------------------
E|--------------------------------------------------------------------------------------------------------------

Song lyrics here


E|-----------------------------7-----7-----------8-----8--7-----7--10-7--10-8-----8--12-8--12-10----10-13-10-13-12-
B|-----------10----10-8-----8-----8-----10----10----10-------8-----------------10----------------12----------------
G|--10-7--10----10-------9-----------------10----------------------------------------------------------------------
D|-----------------------------------------------------------------------------------------------------------------
A|-----------------------------------------------------------------------------------------------------------------
E|-----------------------------------------------------------------------------------------------------------------

E|--12----12----------------------------------------------------------------------------------------------------
B|-----13----13----13-15-12-15-12----12-13----13----------------------------------------------------------------
G|--------------14----------------12-------14----14----14-16-12-16-12----12-14-10-14-10----10-12-9--12-9-----9--
D|--------------------------------------------------15----------------14----------------12----------------10----
A|--------------------------------------------------------------------------------------------------------------
E|--------------------------------------------------------------------------------------------------------------

E|--------------------------------------------------------------------------------------------------------------
B|--------------------------------------------------------------------------------------------------------------
G|--10----10----------9-----9-----------------------------------------------------------------------------------
D|-----12----12-9--12----10----10----10-12-9--12-9-----9--10-7--10-7-----7--9-----9-----------7-----7-----------
A|--------------------------------12----------------10----------------8--------10----10-7--10----8-----8-----8--
E|--------------------------------------------------------------------------------------------------------10----

E|-----
B|-----
G|-----
D|-----
A|--7--
E|-----







Add more lines by placing cursor below and adding notes
tabs and chords, guitar tabs, music transcription, music technology, deep learning, music information retrieval, transcribe into tabs & chords, chordify, music renditions, songsterr, reverbnation, tabulature, bollywood chords, ultimate guitar, yousician, guitar lessons, acoustic guitar, electric guitar, guitar tuner, 911 tabs