Guitar Tabs for Dorian Phrasing Triplet Variation (mclaughlin)

(/) Slide Up  (\) Slide Down  (h) Hammer On  (p) Pull Off  (b) Bend (r) Release (v) Vibrato

Tabs for Song : Dorian Variation Triplets

Song lyrics here
E|--------------------------------------------------------------------------------------------------------------
B|-----------------------------------------------------------------------------------------------8--------8--10-
G|-----------------------------------------------------------7--------7--9-----7--9--10-7--9--10----9--10-------
D|-----------------------7--------7--8-----7--8--10-7--8--10----8--10-------10----------------------------------
A|-----7--8--10-7--8--10----8--10-------10----------------------------------------------------------------------
E|--10----------------------------------------------------------------------------------------------------------



E|-----------7--------7--8-----7--8--10-
B|-----8--10----8--10-------10----------
G|--10----------------------------------
D|--------------------------------------
A|--------------------------------------
E|--------------------------------------



E|--10-8--7-----8--7--------7-----------------------------------------------------------------------------------
B|-----------10-------10-8-----10-8-----10-8--------8-----------------------------------------------------------
G|-----------------------------------10-------10-9-----10-9--7--10-9--7-----9--7--------7-----------------------
D|-----------------------------------------------------------------------10-------10-9-----10-9--7--10-9--7-----
A|-----------------------------------------------------------------------------------------------------------10-
E|--------------------------------------------------------------------------------------------------------------

E|--------------------------------------------------------
B|--------------------------------------------------------
G|--------------------------------------------------------
D|--9--7--------7-----------------------------------------
A|--------10-8-----10-8--7--10-8--7-----8--7--------7-----
E|-----------------------------------10-------10-8-----10-


Add more lines by placing cursor below and adding notes
tabs and chords, guitar tabs, music transcription, music technology, deep learning, music information retrieval, transcribe into tabs & chords, chordify, music renditions, songsterr, reverbnation, tabulature, bollywood chords, ultimate guitar, yousician, guitar lessons, acoustic guitar, electric guitar, guitar tuner, 911 tabs