Guitar Tabs for Philomena And Alcohol

(/) Slide Up  (\) Slide Down  (h) Hammer On  (p) Pull Off  (b) Bend (r) Release (v) Vibrato (x) Muted

Tabs & Chords
BPM : 133.0
Check Track 2 for Chord Positions 

                C#                C#mC#                            F#    C#                   
E|--------------4-----4--3--2--------0-----0--------1-----------1-----------------------------
B|--------------------------------1-----------------------------------------------------------
G|--------------------------------------0--------------------------0--------------------------
D|-----------------------------------------------3--------3-----------------------------------
A|-----------------------------------------------------------------------4--------------------
E|-----------------------------------------------------------------------------4--4-----4--4--

             D#m         G#       D#       C#                F#                         G#    
E|--------------------------------------------------------------------------------------1-----
B|--------------------------------------------------------------------------------------------
G|-----1-----------------------------------1--------------------------------------------------
D|-----------1-----1-----1--1-----1--1-----------4-----3--------------------------------------
A|-----------------------------------------------------------------2-----1--1-----4-----------
E|--4--------------------------------------------------------2--2-----2-----------------------

    C#          D#                
E|--11----12----------------------
B|--------------------------------
G|--------------------------------
D|--------------1-----1-----3--1--
A|--------------------------------
E|--------------------------------

Guitar Tabs for Philomena And Alcohol






                C#                C#mC#                            F#    C#                   
E|--------------4-----------------4--4-----------------------------2-----4--------------------
B|--------------6-----------------5--6-----------------------------2-----6--------------------
G|--------------6-----------------6--6-----------------------------3-----6--------------------
D|--------------6-----------------6--6-----------------------------4-----6--------------------
A|--------------4-----------------4--4-----------------------------4-----4--------------------
E|-----------------------------------------------------------------2--------------------------

             D#m         G#       D#       C#                F#                         G#    
E|-----------6-----------4--------6--------4-----------------2--------------------------4-----
B|-----------7-----------4--------8--------6-----------------2--------------------------4-----
G|-----------8-----------5--------8--------6-----------------3--------------------------5-----
D|-----------8-----------6--------8--------6-----------------4--------------------------6-----
A|-----------6-----------6--------6--------4-----------------4--------------------------6-----
E|-----------------------4-----------------------------------2--------------------------4-----

    C#          D#                
E|--4-----------6-----------------
B|--6-----------8-----------------
G|--6-----------8-----------------
D|--6-----------8-----------------
A|--4-----------6-----------------
E|--------------------------------

tabs and chords, guitar tabs, music transcription, music technology, deep learning, music information retrieval, transcribe into tabs & chords, chordify, music renditions, songsterr, reverbnation, tabulature, bollywood chords, ultimate guitar, yousician, guitar lessons, acoustic guitar, electric guitar, guitar tuner, 911 tabs