Guitar Tabs for Permaisuri

(/) Slide Up  (\) Slide Down  (h) Hammer On  (p) Pull Off  (b) Bend (r) Release (v) Vibrato (x) Muted

Tabs for Song : 

Song lyrics here
E|-----------------------------------------------------------------------
B|-----10-11----10h11h10-------10----11-13-11h13h11-10----10h11h10-------
G|--12-------------------12-10-------------------------------------12----
D|-----------------------------------------------------------------------
A|-----------------------------------------------------------------------
E|-----------------------------------------------------------------------

E|-----------------------------10-------------------
B|--10-11-10h11h10----11-10-------13-11-10h11-10----
G|-----------------12----------------------------12-
D|--------------------------------------------------
A|--------------------------------------------------
E|--------------------------------------------------

Song lyrics here
E|--13----13h11-------------------------------------------------------
B|--------------13-13b13----10b10-11-10-8-----------------------------
G|-----------------------------------------10----7--8---8\10-10\12-10-
D|--12----------------------------------------------------------------
A|--------------------------------------------------------------------
E|--------------------------------------------------------------------

E|-----------------------------------------------------------------------------
B|-----------------------6-----------10-10p11-10-------8--10-11-11p10-8--10----
G|------------5p7---5p7--------10-12-------------12----------------------------
D|-----5--8--------------------------------------------------------------------
A|--8--------------------------------------------------------------------------
E|-----------------------------------------------------------------------------

E|-----------------------------------------------
B|--8--10-7---7\8--10-10b10-----8p10-8--10\13-13-
G|-----------------------------------------------
D|-----------------------------------------------
A|-----------------------------------------------
E|-----------------------------------------------

Paste any tab in acousterr's tab maker and we'll play it !!!
Now supports capo and sound effects for vibrato/pull-off/hammer/bends/mutes etc !!! Checkout help section
tabs and chords, guitar tabs, music transcription, music technology, deep learning, music information retrieval, transcribe into tabs & chords, chordify, music renditions, songsterr, reverbnation, tabulature, bollywood chords, ultimate guitar, yousician, guitar lessons, acoustic guitar, electric guitar, guitar tuner, 911 tabs