Guitar Tabs for Perfect

Song lyrics here
E|-----------------------------------------------------------------------------------------------------------------------3--------2--
B|--------------------0-----------------0--------0-----0-----------------------0--0--0-----------------0--------0-----------3--------
G|-----------0--0--------0-----------0-----2--0-----------0-----------0---0h2------------2p0--0--0---------0h2-----2--2--------2-----
D|--0---0h2--------0--------0-----0-----------------2--------2-----2--------------------------------2------2h------0-----------------
A|-----------------------------------------------------------------------------------3-----------3---------3h------------------------
E|--------------3--------------3-----------------0--------------0--------------------------------------------------------------------

E|--------------------------------------------------------------------------------------------------------------------------------0--------
B|--0--------0-----0---------------0h3--0-----------------------------0---0h1--1--0--------------------0--------0------0h3--3--3-----------
G|-----2--0-----------0---------------------2p0--0--0-----0------0h2-----------------0---2p0--0---0h2-----2--2-----2---2h-------------4\2--
D|--------------0--------0-----0-----------------------2-----2------------------------------------2h------0------------0h------------------
A|------------------------------------------------------------------------3h------3------3p-------3h---------------------------------------
E|-----------3--------------3---------------0p---------------------------------------------------------------------------------------------

E|-----------------------------------------------------------------------------------------------------------
B|--0-----0-----0-----------0-----0-----0-----0---0h1--1--0--------------0--------1---0h-1p0-----------------
G|-----0-----------0--2--0-----0-----0-----0-----------------0--0-----------0-----------------2--2--0--2--0--
D|-----------0-----------------------------------------------------0--0--------0--------------0--------------
A|------------------------------------------------3h---------3-----------------------------------------------
E|--3-----------3-----------0-----------0--------------------------------3-----------------------------------

E|-----------------------------------------------------------------------------------------------------------------------------
B|--0-----------------------------0-----------------------------1--1--0--0---------------------0h3---0h1--------------0--------
G|-----2---2h4--2--4--0--0--2--0-----2---2/4--2--4--0--0--2--0--------------0--0---------0h2---2h---------2--0--0--------0-----
D|--------------------------------------------------------------------------------0--0---0h----0h------------------2--------0--
A|--------------------------------------------------------------3-----------3--------------------------------------------------
E|--3--------------3--------------0--------------0--------------------------------------------------------------0--------------

E|--3-----2--0-----2--------------------------------------------3-----2--0--------------------------------0-----------------------
B|--------------------0-----0--3--1--0-----------------0-----------------------3--0-----0--3--3--3--3--3-----0--------0--------3--
G|-----0--------0--------0-----2---------2p0--0--0--------0--------0--------0--------0-----2--------------------2--0------2h4-----
D|-----------------------------0--------------------2--------0-----------------------------0--------------------------------------
A|--------------------------------------------------------------------------------------------------------------------------------
E|--3-----------------3--------------------------0--------------3-----------------3--------------------------0--------------------

E|--3-----2--0--------------------------------------------------------------------------------------
B|-----------------3--0-----------0--3-----1--0-----0--0------------0h1--0--------------------------
G|-----0--------0--------0--0--2-----2--2--------0--------2--2--0-----------0--2---2h4--2--2--0-----
D|-----------------------------------0-----------------------------------------------------0-----0--
A|--3---------------------------------------------------------------3h---------------------0--------
E|--------------------3--------------------------------0---------------------------3h---------------

E|--------------------------------------------------0-----0--3-----3---3/5--3--
B|--------0--------------------------------------------3-----3--3-----------3--
G|--0--------------2--------0--------------------0-----------2--------------0--
D|-----0--------0--------0------------4\2-----2--------------0--------------0--
A|--------------------------------5--------3-----------------0--------------0--
E|--3--------2--------0--------0-----------------------------0--------------3--

tabs and chords, guitar tabs, music transcription, music technology, deep learning, music information retrieval, transcribe into tabs & chords, chordify, music renditions, songsterr, reverbnation, tabulature, bollywood chords, ultimate guitar, yousician, guitar lessons, acoustic guitar, electric guitar, guitar tuner, 911 tabs