Guitar Tabs for Perfect

(/) Slide Up  (\) Slide Down  (h) Hammer On  (p) Pull Off  (b) Bend (r) Release (v) Vibrato (x) Muted

Tabs for Song : capo on 1st fret
E|-----------------------------------------------------------------------------------------------------------
B|--------------------0-----------------0--------0--------0-----------------0--0--0--0-----------------------
G|--------0--0-----0-----0-----------0-----2--0--------0-----0-----------0---------------2p0--0--0-----------
D|---0p2--------0-----------0-----0-----------------2-----------2-----2-----------------------------2-----2--
A|-----------------------------------------------------------------------------------3-----------------3-----
E|-----------5-----------------5-----------------2-----------------2-----------------------------------------

E|-----------------------------------------------------------------------------------------------------------
B|--------------0--------------3-----------------0-----------0--------0-----------------3--0-----------------
G|--0--0---0h2------0/2-----2-----2-----------2------0/2--0--------0-----0-----------0---------2p0--------0--
D|-----------------------0-----------0-----0--------------------0-----------0-----0--------------------2-----
A|-----3-----------------------------------------------------------------------------------------------------
E|------------------0/------------------0--------------------5-----------------5--------5-----------2--------

E|-----------------------------------------------------------------------------------------------------------
B|--------------------------0--1-----1--0-----------------------------0-----------3---------1/3--3--3--5--0--
G|--0-----------0--0---0h2--------0--------0---0h2--0-----0--0---0h2-----2-----2-----2------2/4--4--4--5--0--
D|-----2-----2-----------------------------------------2--------------------0-----------0--------------------
A|-----------------------------3--------3-----------3--------3-----------------------------------------------
E|--------2--------2-----------------------------------------------------0------------------0/---------------

E|-----------------------------------------------------------------------------------------------------------
B|-----0--------0--------0--------0--------0--------0--------0--------0--------1--------0--------------------
G|--2--0-----0-----0-----------0-----2--0--0-----0-----0-----------0-----2--0--------0---------0h2--0--------
D|--------0-----------0-----0-----------------2-----------2-----2-----------------2--------2-----------0-----
A|-----------------------------------------------------------------------------3--------------------3-----3--
E|-----5-----------------5-----------------2-----------------2-----------------------------------------------

E|-----------------------------------------------------------------------------------------------------------
B|-----0--------0---0h1--0-----------0--------0--------0--------0--------0--------0--------0--------0--------
G|-----------0--------------2-----2-----2--0--0-----0-----0-----------0-----2--0--0-----0-----0-----------0--
D|--0-----0--------------------0-----------------0-----------0-----0-----------------2-----------2-----2-----
A|-----------------------------------------------------------------------------------------------------------
E|-----5--------------------0-----------------5-----------------5-----------------2-----------------2--------

E|--------------------------------------------------------------------------------------3-----2--0------0h2--
B|--------0--1--------0-----------------------------3-----------3--0-----------0-----------------------------
G|--0--2-----------0--------0------------0h2-----2-----2--------------0-----0-----0--------0--------0--------
D|--------------2--------2-----0-----0--------0-----------0--------------2-----------2-----------------------
A|-----------3--------------3-----3-----------------------------------------------------3--------3-----------
E|---------------------------------------0h---------------------0-----2--------------------------------------

E|--------------------------------------------------------------3-----2--0-----------------------------------
B|--0--------0---------1/3-----1--0--------------------0-----------------------0--------0---------1/3--3--3--
G|--------0-----0------2/2---------------0h2--0-----0-----0--------0--------0--------0-----0------2/2--2--2--
D|-----0-----------0--------0--------0-----------2-----------2--------------------0-----------0--------------
A|--------------------------------------------------------------3--------3-----------------------------------
E|--5------------------0/---------0-----------2--------------------------------5------------------0/---------

E|--------------------------------3-----2--0------0h2--------------------------------------------------------
B|--3------3/5--0--------------0-----------------------0-----------------0---1/3-----1--0------0h1--0--------
G|--2--------------2--0---0h2--------0--------0--------------0--0---0h2------2/2--------------------------0--
D|-----0--------------------------------------------------0-----------------------0--------0-----------2-----
A|--------------------------------3--------3-----------------------------------------------------------------
E|--0-----------2--------------------------------------5---------------------0/---------0-----------2--------

E|-----------------------------------------------------------7--------5--------3--------2--------0--------0--
B|-----------1--------0--------0-----------------------------------0--------0--------0--------0--------------
G|--2-----0--------0-----0--2--------0--2-----0--2-----0-----0--0--------0--------0--------0-----------0-----
D|-----2--------2-----------------0--------0--------0-----4-----------------------------------------2--------
A|-----------3--------3--------------------------------------------------------------------------3-----------
E|--2--------------------------5--------5--------0-----0-----5--------4--------2--------0--------------------

E|--------2--
B|--0--------
G|-----0-----
D|-----------
A|--------5--
E|-----------

E|--
B|--
G|--
D|--
A|--
E|--

E|--
B|--
G|--
D|--
A|--
E|--

E|--
B|--
G|--
D|--
A|--
E|--

Song lyrics here
E|--
B|--
G|--
D|--
A|--
E|--

Paste any tab in acousterr's tab maker and we'll play it !!!
Now supports capo and sound effects for vibrato/pull-off/hammer/bends/mutes etc !!! Checkout help section
tabs and chords, guitar tabs, music transcription, music technology, deep learning, music information retrieval, transcribe into tabs & chords, chordify, music renditions, songsterr, reverbnation, tabulature, bollywood chords, ultimate guitar, yousician, guitar lessons, acoustic guitar, electric guitar, guitar tuner, 911 tabs