Guitar Tabs for Pehla Nasha

(/) Slide Up  (\) Slide Down  (h) Hammer On  (p) Pull Off  (b) Bend (r) Release (v) Vibrato

Tabs for Song : Pehla Nasha Intro

Intro 1
E|--------------------------8--------------------------------------8--------------------------
B|---5h6--6--6--------5--6--------6-----5---5h6--6--6--------5--6--------6-----5--------------
G|--------------------------------------------------------------------------------7-----7--7--
D|--------------------------------------------------------------------------------------------
A|--------------------------------------------------------------------------------------------
E|--------------------------------------------------------------------------------------------

Intro 2
E|-----------5---------------------------------------5h-6p5-----------------------
B|-----6--8-----6------6/8-----8--8-----------6--8-----------6--5------5h6--6--6--
G|--5--------------------------------------5--------------------------------------
D|--------------------------------------------------------------------------------
A|--------------------------------------------------------------------------------
E|--------------------------------------------------------------------------------

Now supports capo and sound effects for vibrato/pull-off/hammer/bends etc !!! Checkout help section
tabs and chords, guitar tabs, music transcription, music technology, deep learning, music information retrieval, transcribe into tabs & chords, chordify, music renditions, songsterr, reverbnation, tabulature, bollywood chords, ultimate guitar, yousician, guitar lessons, acoustic guitar, electric guitar, guitar tuner, 911 tabs