Ukulele Tabs for Parasyte Next To You

(/) Slide Up  (\) Slide Down  (h) Hammer On  (p) Pull Off  (b) Bend (r) Release (v) Vibrato (x) Muted

Tabs for Song : 
BPM : 120

Song lyrics here
A|--0-----0--4--2-----0-----0-----2--0--------------
E|-----2-----------------4--------------4--2--0--4--
C|--------------------------------------------------
G|--------------------------------------------------

A|--0-----0--4--2-----0-----------2-----2--5--4-----
E|-----2-----------------4--4--------5-----------4--
C|--------------------------------------------------
G|--------------------------------------------------

A|-----------7--2-----0-----------2--0--7-----4--------------4--------
E|--5--2--5--------------4--4--------------------7--5--0--2-----7-----
C|--------------------------------------------------------------------
G|--------------------------------------------------------------------

A|--0--------------0-----5--4-----
E|-----4--4-----7-----4--------4--
C|--------------------------------
G|--------------------------------


Paste any tab in acousterr's tab maker and we'll play it !!!
Now supports capo and sound effects for vibrato/pull-off/hammer/bends/mutes etc !!! Checkout help section
tabs and chords, guitar tabs, music transcription, music technology, deep learning, music information retrieval, transcribe into tabs & chords, chordify, music renditions, songsterr, reverbnation, tabulature, bollywood chords, ultimate guitar, yousician, guitar lessons, acoustic guitar, electric guitar, guitar tuner, 911 tabs