Guitar Tabs for Next To You

D#|----------------------------------------------------------------------------------------
A#|-------10-------8--------10-------8--------10-------8--------10-------7------------------
F#|-----------------------------------------------------------------------------------------
C#|----9--------9--------9--------9--------9--------9--------9--------9---------------------
G#|-10-------10-------9--------9--------7--------7------------------------------------------
D#|-------------------------------------------------------10-------10-----------------------






D#|----------------------------------------------------------------------------------------
A#|-------10-------8--------10-------8--------10-------8--------10-------7-----------------
F#|----------------------------------------------------------------------------------------
C#|----9--------9--------9--------9--------9--------9--------9--------9--------------------
G#|-10-------10-------9--------9--------7--------7-----------------------------------------
D#|-------------------------------------------------------10-------10----------------------

D#|----------------------------------------------------------------------------------------
A#|-------10-------8--------10-------8--------10-------8--------10-------7-----------------
F#|----------------------------------------------------------------------------------------
C#|----9--------9--------9--------9--------9--------9--------9--------9--------------------
G#|-10-------10-------9--------9--------7--------7-----------------------------------------
D#|-------------------------------------------------------10-------10----------------------

D#|--15-14-15-12-15-10-15----------------------------------------------------------------------------8--7--
A#|--------------------------13h15p13----12h13p12----15h17-13h15-12h13-10h12--8h10--7h8---5h7---5h7--------
F#|--------------------------------------------------------------------------------------------------------
C#|--------------------------------------------------------------------------------------------------------
G#|--------------------------------------------------------------------------------------------------------
D#|--------------------------------------------------------------------------------------------------------

D#|-14h15p14----------------------------------------15h17b15-----------------------------------------------------------------------
A#|----------15----------15-15-15----15-15-15-15----------------15h17-13h15-12h13-10h12--8h10--7h8---5h7---5h7--10-8--------------
F#|-------------16-14-------------------------------------------------------------------------------------------------------------
C#|-------------------------------------------------------------------------------------------------------------------------------
G#|-------------------------------------------------------------------------------------------------------------------------------
D#|-------------------------------------------------------------------------------------------------------------------------------
tabs and chords, guitar tabs, music transcription, music technology, deep learning, music information retrieval, transcribe into tabs & chords, chordify, music renditions, songsterr, reverbnation, tabulature, bollywood chords, ultimate guitar, yousician, guitar lessons, acoustic guitar, electric guitar, guitar tuner, 911 tabs