Guitar Tabs for Paniyon Sa

jo tere sang lagi prit mohe
E|--------------------------------------------------------------------------------
B|--------------3--3--4------3h-4p-3h-4p3--------------4---3h-4p3-----------------
G|--------3--5-----------------------------------3-----------------5-----3--5-----
D|--5--5--------------------------------------------------------------------------
A|--------------------------------------------------------------------------------
E|--------------------------------------------------------------------------------


rooh bar bar tera naam le
E|--------------------------------------------------------------------------------
B|--4--3-----3-----4--3-----4---3h-4p3--------------------------------------------
G|--------------------------------------3-----5-----3--3-----5---3h-5p3-----3-----
D|-----------------------------------------------------------------------5--------
A|--------------------------------------------------------------------------------
E|--------------------------------------------------------------------------------


k rab se hai mangi yehi dua
E|--------------------------------------------------------------------------------
B|--------------3--3--4------3h-4p-3h-4p3--------------4---3h-4p3-----------------
G|--------3--5-----------------------------------3-----------------5-----3--5-----
D|--5--5--------------------------------------------------------------------------
A|--------------------------------------------------------------------------------
E|--------------------------------------------------------------------------------


tu haato ki lakire tham le
E|--------------------------------------------------------------------------------
B|--4--3-----3-----4--3-----4---3h-4p3--------------------------------------------
G|--------------------------------------3-----5-----3--3-----5---3h-5p3-----3-----
D|-----------------------------------------------------------------------5--------
A|--------------------------------------------------------------------------------
E|--------------------------------------------------------------------------------


chup hai,baatein, dil kaise bayan me karun
E|--3------------3h-4p3-----------------------------------------------
B|-----6--4--------------4--------3--4--4--6---3h-4p3-----------------
G|-----------------------------5-----------------------5--3---5/7-----
D|--------------------------------------------------------------------
A|--------------------------------------------------------------------
E|--------------------------------------------------------------------


tuhi, kehde, woh baat me jo keh na saku...
E|--3-----------3-----------------------------------------------------
B|-----6--4--------4--4--------3--4--4--6---3h-4p3--------------------
G|--------------------------5-----------------------5--3---5/7--------
D|--------------------------------------------------------------------
A|--------------------------------------------------------------------
E|--------------------------------------------------------------------


tere sang paniyon sa paniyon sa......
E|-----------------------------------------------------------------------------------------------
B|--------------3--4--4--4-----4--4--4-----4--4--4-----------------------------------------3-----
G|--------3--5--------------5-----------5-----------5---3h-5p3--3--3--5--5-----3--5--3--5-----5--
D|--5--5-----------------------------------------------------------------------------------------
A|-----------------------------------------------------------------------------------------------
E|-----------------------------------------------------------------------------------------------


tu sunti rahe me kahaniya si kehta rahun
E|-----------------------------------------------------------------------------------------
B|-----------3-----3--4--3-----3--4--3-----3--3--4--3--------------------------------------
G|-----3--5--------------------------------------------5--5--3--3--5---3h-5p3--------3-----
D|-----------------------------------------------------------------------------5-----------
A|-----------------------------------------------------------------------------------------
E|-----------------------------------------------------------------------------------------


tere sang badalon sa badalon sa......
E|--------------------------------------------------------------------------------------------
B|--------------3--4--4--4-----4--4--4-----4--4--4--------------------------------------3-----
G|--------3--5--------------5-----------5-----------5---3h-5p3--3--3--5--5--3--5--3--5-----5--
D|--5--5--------------------------------------------------------------------------------------
A|--------------------------------------------------------------------------------------------
E|--------------------------------------------------------------------------------------------


teri ek ishare pe...
E|-----------------------------------------------------------------------------------------
B|-----------3-----3--4--3-----3--4--3-----3--3--4--3-----3--------------------------------
G|-----3--5--------------------------------------------5-----3--3--5---3h-5p3--------3-----
D|-----------------------------------------------------------------------------5-----------
A|-----------------------------------------------------------------------------------------
E|-----------------------------------------------------------------------------------------


oo ohh ooo
E|--------------------------------------------------------------------------------------------
B|--------------3--4-----4--3--4-----4--3--4-----4--6--4--3--------------------------3--------
G|--------3--5-----------------------------------------------5--3-----5--3--5--3--5-----5-----
D|--5--5--------------------------------------------------------------------------------------
A|--------------------------------------------------------------------------------------------
E|--------------------------------------------------------------------------------------------

E|-----------------------------------------------------------------------------------
B|--------3-----3-----3-----3-----3-----3--4--3--------------------------------------
G|--3--5-----------5-----------5-----------------5--5--3--3--5---3h-5p3-----3--------
D|-----------------------------------------------------------------------5-----------
A|-----------------------------------------------------------------------------------
E|-----------------------------------------------------------------------------------
tabs and chords, guitar tabs, music transcription, music technology, deep learning, music information retrieval, transcribe into tabs & chords, chordify, music renditions, songsterr, reverbnation, tabulature, bollywood chords, ultimate guitar, yousician, guitar lessons, acoustic guitar, electric guitar, guitar tuner, 911 tabs