Guitar Tabs for Painted Girl's Theme (lead)

(/) Slide Up  (\) Slide Down  (h) Hammer On  (p) Pull Off  (b) Bend (r) Release (v) Vibrato (x) Muted

Tabs for Song : Painted Girl's Theme
Capo on
fret 7
Tab numbers not adapted to capo sry

E|-----------------------------12----------------------------
C|-----------------------------12----------------------------
A|--11----------7--9--10-11----------------------------------
D|-----11----13----------------------------------------------
A|------------------------------------9h11-11-11-11-11-11-11-
D|-----------------------------------------------------------

E|-----------------------------7--------7-----------7--------------------7--------------7-----------------7-----------12-12-12-7--7-----------------------------------7--------7-----------------------7--------------------7--------
C|--------------------------------------------------------------------7-----------7-----------7--------7--------7-----12-12-12-7--7-----------7-----------7--------7-----7--7-----------------------------7--------------7-----------
A|---9/11-11-11-11-14-11-9--7--------7---------9h11----------7--11-9---------9/11----11----11-------7--------9-----7--12-12-12-7--7------9/11----11----7-----9--11-------------------7--11----------7--------9--7-----7--------7--7--
D|--------------------------------------------------------13-------------------------------------13-------------------------------------------------13----------------------------13-------11-13-13----------------13----------------
A|-----------------------------------------------------------------------------------------------------------------------------------------------------------------------------------------------------------------------------------
D|--------------------------------------------------------------------------------------------------------------------------------------------------------------------------------------------------------------------------------



Song lyrics here 
E|-----------------------------12----------------------------------------------------
C|-----------------------------12----------------------------------------------------
A|--11----------7--9--10-11----------------------------------------------------------
D|-----11----13-------------------------------------------------7--7--7--7--7--7--7--
A|------------------------------------9h11-11-11-11-11-11-11----7--7--7--7--7--7--7--
D|--------------------------------------------------------------7--7--7--7--7--7--7--

E|--12-------12-------12-------12-------12-------12-12-12-12-12-12-12-12-7--
C|-----10-------10-------10-------10-------10----10-10-10-10-10-10-10-10-7--
A|--------11-------11-------11-------11-------11-11-11-11-11-11-11-11-11-7--
D|--------------------------------------------------------------------------
A|--------------------------------------------------------------------------
D|--------------------------------------------------------------------------

E|-----------------------------------------------------------------------------------------------------
C|--------------------------14-14-14-14-14-14-14-14-14-14-14-14-14-12-10-12-14-12-10-12-14-12-10-12-14-
A|--11-11-11----9--11----------------------------------------------------------------------------------
D|-----------------------------------------------------------------------------------------------------
A|-----------------------------------------------------------------------------------------------------
D|-----------------------------------------------------------------------------------------------------

E|-----------------------------------------------------------------------7-----------------------7-----11----------------------7--------------12p11p7--11-------------------------------------17----16----14-16----16-16b17-17-17-17r16-16-14-12-11----7--7--7--7--7--
C|--15-12-10----------------------------------------------------------------7-----------------------------10----10----------------7--------------------------12-10-10-------------------------------------------------------------------------------------------------
A|--------------12p11-7--------------------------------11h12-11-----9/11-----------------7h-9h11----7--------11----11-7---9h11----------7-----------------------------------------11-12-9--7--------------------------------------------------------------------------
D|--------------------------14p13----------13-14-16-14--------------------------9h11/13----------------------------------------------------------------------------------13h14----------------------------------------------------------------------------------------
A|--------------------------------14----14----------------------------------------------------------------------------------------------------------------------------------------------------------------------------------------------------------------------------
D|--------------------------------------------------------------------------------------------------------------------------------------------------------------------------------------------------------------------------------------------------------------------


E|--7--7--7--7--7--7--7--7--21-21-19-19-15-15b16-16-7--7--7--7--7--7--7--7--21-21-19-19-15-15b16-21-21-19-19-15-15b16-16-21-21-19-19-15-15b16-12-12-14-14-14-15-15-16-
C|--------------------------------------------------------------------------------------------------------------------------------------------------------------------
A|--------------------------------------------------------------------------------------------------------------------------------------------------------------------
D|--------------------------------------------------------------------------------------------------------------------------------------------------------------------
A|--------------------------------------------------------------------------------------------------------------------------------------------------------------------
D|--------------------------------------------------------------------------------------------------------------------------------------------------------------------

E|--14p12-14p12-14p12-14p12-14p12-14p12-14p12-14p12-------------------------------------------------
C|--------------------------------------------------12p10-12p10-12p10-12p10-12p10-12p10-12p10-12p10-
A|--------------------------------------------------------------------------------------------------
D|--------------------------------------------------------------------------------------------------
A|--------------------------------------------------------------------------------------------------
D|--------------------------------------------------------------------------------------------------

E|-----------------------
C|--17-------------------
A|-----16\11\7-----------
D|-----------------------
A|-----------------------
D|-----------------------






tabs and chords, guitar tabs, music transcription, music technology, deep learning, music information retrieval, transcribe into tabs & chords, chordify, music renditions, songsterr, reverbnation, tabulature, bollywood chords, ultimate guitar, yousician, guitar lessons, acoustic guitar, electric guitar, guitar tuner, 911 tabs