Ukulele Tabs for Pachtaoge Ukulele Tabs

Ho mujhe chhod kar jo tum jaaoge
A|--2--3--2---3/7--7--7--7-----2--3--2---3/7-----------
E|--------------------------------------------8--7-----
C|-----------------------------------------------------
G|-----------------------------------------------------

Jo tum jaaoge, Jo tum jaaoge
A|--2-----------------------------------------------------
E|-----5--2---2/3--3--3------3/5---3\2---2h-3p2-----------
C|-----------------------------------------------4--4-----
G|--------------------------------------------------------

Ho mujhe chhod kar jo tum jaaoge
A|--2--3--2---3/7--7--7--7-----2--3--2---3/7-----------
E|--------------------------------------------8--7-----
C|-----------------------------------------------------
G|-----------------------------------------------------

Bada pachtaoge, bada pachtaoge
A|--2-----2---2/3--3---3/7--7--7---7\3---3\2--2--2-----
E|-----5-----------------------------------------------
C|-----------------------------------------------------
G|-----------------------------------------------------

Bada pachtaoge, bada pachtaoge
A|--2-----2---2/3--3---3/7--7--7---7\3---3\2--2--2-----
E|-----5-----------------------------------------------
C|-----------------------------------------------------
G|-----------------------------------------------------

Sunniya sunniya galliyan de vich rol na deyin
A|--------2--2--2--2--------2--2--2--2--2-----5--3---2h-3p2--------
E|--0--0--------------0--0-----------------------------------5-----
C|-----------------------------------------------------------------
G|-----------------------------------------------------------------

Boohe kise hor li tu khol na deyi
A|--------2--2--2--2--------2--2--2--2--2-----5--3---2h-3p2--------
E|--0--0--------------0--0-----------------------------------5-----
C|-----------------------------------------------------------------
G|-----------------------------------------------------------------

Ho shayar Jaani nu je rulaaoge
A|--2--3--2---3/7--7--7--7-----2--3--2---3/7-----------
E|--------------------------------------------8--7-----
C|-----------------------------------------------------
G|-----------------------------------------------------

Bada pachtaoge, bada pachtaoge
A|--2-----2---2/3--3---3/7--7--7---7\3---3\2--2--2-----
E|-----5-----------------------------------------------
C|-----------------------------------------------------
G|-----------------------------------------------------

Tere bina zindagi guzarage kivein
A|-----7--7--9--9--10-10-10----3--3-----7--5--3--2-----
E|-----------------------------------------------------
C|-----------------------------------------------------
G|-----------------------------------------------------

Jaan jaan kihnu pukarange kivein
A|-----7--7--9--9--10-10-10----3--3-----7--5--3--2-----
E|-----------------------------------------------------
C|-----------------------------------------------------
G|-----------------------------------------------------

Karoge je karoge je daga karoge
A|--------2--2--2--2--------2--2--2--2--2--2--5--3---2h-3p2--------
E|--0--0--------------0--0-----------------------------------5-----
C|-----------------------------------------------------------------
G|-----------------------------------------------------------------

Sadde waali maut tussi vi te maroge
A|--------2--2--2--2--------2--2--2--2--2--2--5--3---2h-3p2--------
E|--0--0--------------0--0-----------------------------------5-----
C|-----------------------------------------------------------------
G|-----------------------------------------------------------------

O Allah vekhda, zulm kamaoge
A|--2--3--2---3/7--7--7--7-----2--3--2---3/7-----------
E|--------------------------------------------8--7-----
C|-----------------------------------------------------
G|-----------------------------------------------------

Bada pachtaoge, bada pachtaoge
A|--2-----2---2/3--3---3/7--7--7---7\3---3\2--2--2-----
E|-----5-----------------------------------------------
C|-----------------------------------------------------
G|-----------------------------------------------------


Mujhse jo nazrein churane lage ho
A|--------------------------------------------------------------------------
E|-----3-----3--3---3/5--3-----3--3--3-----3--3---3/5--3--2---2h-3p2--------
C|--------------------------------------------------------------------4-----
G|--------------------------------------------------------------------------

Lagta hai koi aur gali jaane lage ho
A|-----------------------------------------------------------------
E|--2-----2--2--3-----2-----2--2--3-----2-----2--2---2h-3p2--2-----
C|-----------------------------------------------------------------
G|-----------------------------------------------------------------

Khwab jo dekhe hum dono ne milke
A|--------------------------------------------------------
E|-----3-----3--3---3/7--7-----3--3--3-----3---3/7--7-----
C|--------------------------------------------------------
G|--------------------------------------------------------

Dheere dheere kyun dafnaane lage ho
A|-----------------------------------------------------------------
E|--2-----2--2--3-----2-----2--2--3-----2-----2--2---2h-3p2--2-----
C|-----------------------------------------------------------------
G|-----------------------------------------------------------------



A|--------2--2--2--2--------2--2--2--2--2-----5--3---2h-3p2--------
E|--0--0--------------0--0-----------------------------------5-----
C|-----------------------------------------------------------------
G|-----------------------------------------------------------------
tabs and chords, guitar tabs, music transcription, music technology, deep learning, music information retrieval, transcribe into tabs & chords, chordify, music renditions, songsterr, reverbnation, tabulature, bollywood chords, ultimate guitar, yousician, guitar lessons, acoustic guitar, electric guitar, guitar tuner, 911 tabs