Guitar Tabs for Pachtaoge Single String Tabs

Ho mujhe chhod kar jo tum jaaoge
E|--7--8--7---8/12-12-12-12----7--8--7---8/12-8--7-----
B|-----------------------------------------------------
G|-----------------------------------------------------
D|-----------------------------------------------------
A|-----------------------------------------------------
E|-----------------------------------------------------

Jo tum jaaoge, Jo tum jaaoge
E|--7--5--2---2/3--3--3------3/5---3\2---2h-3p2--0--0-----
B|--------------------------------------------------------
G|--------------------------------------------------------
D|--------------------------------------------------------
A|--------------------------------------------------------
E|--------------------------------------------------------

Ho mujhe chhod kar jo tum jaaoge
E|--7--8--7---8/12-12-12-12----7--8--7---8/12-8--7-----
B|-----------------------------------------------------
G|-----------------------------------------------------
D|-----------------------------------------------------
A|-----------------------------------------------------
E|-----------------------------------------------------

Bada pachtaoge, bada pachtaoge
E|--7--5--7---7/8--8---8/12----12-12-12\8---8\7--7--7-----
B|--------------------------------------------------------
G|--------------------------------------------------------
D|--------------------------------------------------------
A|--------------------------------------------------------
E|--------------------------------------------------------

Bada pachtaoge, bada pachtaoge
E|--7--5--7---7/8--8---8/12----12-12-12\8---8\7--7--7-----
B|--------------------------------------------------------
G|--------------------------------------------------------
D|--------------------------------------------------------
A|--------------------------------------------------------
E|--------------------------------------------------------

Sunniya sunniya galliyan de vich rol na deyin
E|--0--0--7--7--7--7--0--0--7--7--7--7--7-----10-8---7h-8p7--5-----
B|-----------------------------------------------------------------
G|-----------------------------------------------------------------
D|-----------------------------------------------------------------
A|-----------------------------------------------------------------
E|-----------------------------------------------------------------

Boohe kise hor li tu khol na deyi
E|--0--0--7--7--7--7--0--0--7--7--7--7--7-----10-8---7h-8p7--5-----
B|-----------------------------------------------------------------
G|-----------------------------------------------------------------
D|-----------------------------------------------------------------
A|-----------------------------------------------------------------
E|-----------------------------------------------------------------

Ho shayar Jaani je rulaaoge
E|--7--8--7---8/12-12-12-12----7--8--7---8/12-8--7-----
B|-----------------------------------------------------
G|-----------------------------------------------------
D|-----------------------------------------------------
A|-----------------------------------------------------
E|-----------------------------------------------------

Bada pachtaoge, bada pachtaoge
E|--7--5--7---7/8--8---8/12----12-12-12\8---8\7--7--7-----
B|--------------------------------------------------------
G|--------------------------------------------------------
D|--------------------------------------------------------
A|--------------------------------------------------------
E|--------------------------------------------------------

Tere bina zindagi guzarage kivein
E|-----12-12----14-14----15----15-15----8--8-----12-10----8--7-----
B|-----------------------------------------------------------------
G|-----------------------------------------------------------------
D|-----------------------------------------------------------------
A|-----------------------------------------------------------------
E|-----------------------------------------------------------------

Jaan jaan kihnu pukarange kivein
E|-----12-12----14-14----15----15-15----8--8-----12-10----8--7-----
B|-----------------------------------------------------------------
G|-----------------------------------------------------------------
D|-----------------------------------------------------------------
A|-----------------------------------------------------------------
E|-----------------------------------------------------------------

Karoge je karoge je daga karoge
E|--0--0--7--7--7--7--0--0--7--7--7--7--7--7--10-8---7h-8p7--5-----
B|-----------------------------------------------------------------
G|-----------------------------------------------------------------
D|-----------------------------------------------------------------
A|-----------------------------------------------------------------
E|-----------------------------------------------------------------

Sadde waali maut tussi vi te maroge
E|--0--0--7--7--7--7--0--0--7--7--7--7--7--7--10-8---7h-8p7--5-----
B|-----------------------------------------------------------------
G|-----------------------------------------------------------------
D|-----------------------------------------------------------------
A|-----------------------------------------------------------------
E|-----------------------------------------------------------------

O Allah vekhda, zulm kamaoge
E|--7--8--7---8/12-12-12-12----7--8--7---8/12-8--7-----
B|-----------------------------------------------------
G|-----------------------------------------------------
D|-----------------------------------------------------
A|-----------------------------------------------------
E|-----------------------------------------------------

Bada pachtaoge, bada pachtaoge
E|--7--5--7---7/8--8---8/12----12-12-12\8---8\7--7--7-----
B|--------------------------------------------------------
G|--------------------------------------------------------
D|--------------------------------------------------------
A|--------------------------------------------------------
E|--------------------------------------------------------

Mujhse jo nazrein churane lage ho
E|--3-----3--3---3/5--3-----3--3--3--3--3---3/5--3---2h-3p2--0-----
B|-----------------------------------------------------------------
G|-----------------------------------------------------------------
D|-----------------------------------------------------------------
A|-----------------------------------------------------------------
E|-----------------------------------------------------------------

Lagta hai koi aur gali jaane lage ho
E|--2-----2--2--3-----2-----2--2--3-----2-----2--2---2h-3p2--2-----
B|-----------------------------------------------------------------
G|-----------------------------------------------------------------
D|-----------------------------------------------------------------
A|-----------------------------------------------------------------
E|-----------------------------------------------------------------

Khwab jo dekhe hum dono ne milke
E|-----3-----3--3---3/7--7-----3--3--3-----3--3---3/7--7-----
B|-----------------------------------------------------------
G|-----------------------------------------------------------
D|-----------------------------------------------------------
A|-----------------------------------------------------------
E|-----------------------------------------------------------

Dheere dheere kyun dafnaane lage ho
E|--2-----2--2--3-----2-----2--2--3-----2-----2--2---2h-3p2--2-----
B|-----------------------------------------------------------------
G|-----------------------------------------------------------------
D|-----------------------------------------------------------------
A|-----------------------------------------------------------------
E|-----------------------------------------------------------------


E|--0--0--7--7--7--7--0--0--7--7--7--7-----7-----10-8---7h-8p7--5-----
B|--------------------------------------------------------------------
G|--------------------------------------------------------------------
D|--------------------------------------------------------------------
A|--------------------------------------------------------------------
E|--------------------------------------------------------------------
tabs and chords, guitar tabs, music transcription, music technology, deep learning, music information retrieval, transcribe into tabs & chords, chordify, music renditions, songsterr, reverbnation, tabulature, bollywood chords, ultimate guitar, yousician, guitar lessons, acoustic guitar, electric guitar, guitar tuner, 911 tabs