Guitar Tabs for Raabta - Single String Tabs

(/) Slide Up  (\) Slide Down  (h) Hammer On  (p) Pull Off  (b) Bend (r) Release (v) Vibrato

Tabs for Song : 

Intro
E|-----------------------------------------------
B|--0--4--5--4-----0--4--5--4-----0--4--5--4-----
G|-----------------------------------------------
D|-----------------------------------------------
A|-----------------------------------------------
E|-----------------------------------------------

E|-----------------------------
B|--9--9--7--7--5--5--4--4--5--
G|-----------------------------
D|-----------------------------
A|-----------------------------
E|-----------------------------


E|-----------------------------------------------
B|--0--4--5--4-----0--4--5--4-----0--4--5--4-----
G|-----------------------------------------------
D|-----------------------------------------------
A|-----------------------------------------------
E|-----------------------------------------------


E|-----------------------------
B|--9--9--7--7--5--5--4--4--5--
G|-----------------------------
D|-----------------------------
A|-----------------------------
E|-----------------------------


E|--------------------------------
B|--2--5--7--5-----2--5--7--5-----
G|--------------------------------
D|--------------------------------
A|--------------------------------
E|--------------------------------


E|-----------------------------
B|--4--4--2--2--0--0--4--5--7--
G|-----------------------------
D|-----------------------------
A|-----------------------------
E|-----------------------------
tabs and chords, guitar tabs, music transcription, music technology, deep learning, music information retrieval, transcribe into tabs & chords, chordify, music renditions, songsterr, reverbnation, tabulature, bollywood chords, ultimate guitar, yousician, guitar lessons, acoustic guitar, electric guitar, guitar tuner, 911 tabs