Guitar Tabs for Overcooked 2 Map Theme

(/) Slide Up  (\) Slide Down  (h) Hammer On  (p) Pull Off  (b) Bend (r) Release (v) Vibrato (x) Muted

Tabs for Song : 

Song lyrics here
E|------15-------17-12----------12-13-12-10-15-------12-------------15-------17-12-------12-13-12-10-15----------
B|--13----------------10----------------------12-13----8-----15-13----------------10-------------------12-13----
G|--------------------------------------------------------------------------------------------------------------
D|--------------------------------------------------------------------------------------------------------------
A|--------------------------------------------------------------------------------------------------------------
E|--------------------------------------------------------------------------------------------------------------

E|-----13-15-17-13-12-------------13-15-17-13-------------------------------13-15-17-13-12----------------12-17-------------
B|--13----------------8--------13-------------10-11-12-13-14-15-12-------13----------------13-------10-13-------13-15-------
G|--------------------------------------------------------------------------------------------------------------------------
D|--------------------------------------------------------------------------------------------------------------------------
A|--------------------------------------------------------------------------------------------------------------------------
E|--------------------------------------------------------------------------------------------------------------------------

E|-----15-17-12----12-13-12-10-15-------
B|--13----------10----------------12-13-
G|--------------------------------------
D|--------------------------------------
A|--------------------------------------
E|--------------------------------------

Chords: C, Dm, G, C
E|--
B|--
G|--
D|--
A|--
E|--

Paste any tab in acousterr's tab maker and we'll play it !!!
Now supports capo and sound effects for vibrato/pull-off/hammer/bends/mutes etc !!! Checkout help section
tabs and chords, guitar tabs, music transcription, music technology, deep learning, music information retrieval, transcribe into tabs & chords, chordify, music renditions, songsterr, reverbnation, tabulature, bollywood chords, ultimate guitar, yousician, guitar lessons, acoustic guitar, electric guitar, guitar tuner, 911 tabs