Map Of Your Head - Muse - Guitar Tabs

Guitare - Matthew Bellamy
    
                                                                                                                                                                                                                                                                                                                                                                                                                                                                                                                                                                                                                                                                                                                                                                                                                                                                                                                                                                                                                                                                                                                                                                                              
E|-----9--9--------------5--5--7-|---9--9--------------5--5--7-|
B|-----10----10----0-----7--6----|---10----10----0-----7--6----|
G|-----9--------9--------7--7----|---9--------9--------7--7----|
D|--------------------0----------|------------------0----------|
A|--0----------------------------|0----------------------------|
E|-------------------------------|-----------------------------|

    
                                                                                                                                                                                                                                                                                                                                                                                                                                                                                                                                                                                                                                                                                                                                                                                                                                                                                                                                                                                                                                                                                                                                                                                              
E|-----9--9--------------0--0----------|---2--2--------------5--5--7-|
B|-----10----10----0-----0-----0-----0-|---2-----2-----0-----7--6----|
G|-----9--------9--------1--------1----|---2--------2--------7--7----|
D|-------------------------------------|-----------------------------|
A|--0----------------------------------|------------------0----------|
E|--------------------0----------------|2----------------------------|

    
                                                                                                                                                                                                                                                                                                                                                                                                                                                                                                                                                                                                                                                                                                                                                                                                                                                                                                                                                                                                                                                                                                                                                                                              
E|-----9--9--------------5--5--7-|---9--9--------------5--5--7-|
B|-----10----10----0-----7--6----|---10----10----0-----7--6----|
G|-----9--------9--------7--7----|---9--------9--------7--7----|
D|--------------------0----------|------------------0----------|
A|--0----------------------------|0----------------------------|
E|-------------------------------|-----------------------------|

    
                                                                                                                                                                                                                                                                                                                                                                                                                                                                                                                                                                                                                                                                                                                                                                                                                                                                                                                                                                                                                                                                                                                                                                                              
E|-----9--9--------------0--0----------|---2--2--------------5--5--7-|
B|-----10----10----0-----0-----0-----0-|---2-----2-----0-----7--6----|
G|-----9--------9--------1--------1----|---2--------2--------7--7----|
D|-------------------------------------|-----------------------------|
A|--0----------------------------------|------------------0----------|
E|--------------------0----------------|2----------------------------|

    
                                                                                                                                                                                                                                                                                                                                                                                                                                                                                                                                                                                                                                                                                                                                                                                                                                                                                                                                                                                                                                                                                                                                                                                              
E|-----9--9--------------5--5--7-|---9--9--------------5--5--7-|
B|-----10----10----0-----7--6----|---10----10----0-----7--6----|
G|-----9--------9--------7--7----|---9--------9--------7--7----|
D|--------------------0----------|------------------0----------|
A|--0----------------------------|0----------------------------|
E|-------------------------------|-----------------------------|

    
                                                                                                                                                                                                                                                                                                                                                                                                                                                                                                                                                                                                                                                                                                                                                                                                                                                                                                                                                                                                                                                                                                                                                                                              
E|-----9--9--------------0--0----------|---2--2--------------5--5--7-|
B|-----10----10----0-----0-----0-----0-|---2-----2-----0-----7--6----|
G|-----9--------9--------1--------1----|---2--------2--------7--7----|
D|-------------------------------------|-----------------------------|
A|--0----------------------------------|------------------0----------|
E|--------------------0----------------|2----------------------------|

    
                                                                                                                                                                                                                                                                                                                                                                                                                                                                                                                                                                                                                                                                                                                                                                                                                                                                                                                                                                                                                                                                                                                                                                                              
E|-----9--9--------------5--5--7-|---9--9--------------5--5--7-|
B|-----10----10----0-----7--6----|---10----10----0-----7--6----|
G|-----9--------9--------7--7----|---9--------9--------7--7----|
D|--------------------0----------|------------------0----------|
A|--0----------------------------|0----------------------------|
E|-------------------------------|-----------------------------|

    
                                                                                                                                                                                                                                                                                                                                                                                                                                                                                                                                                                                                                                                                                                                                                                                                                                                                                                                                                                                                                                                                                                                                                                                              
E|-----9--9--------------0--0----------|---2--2--------------5--5--7-|
B|-----10----10----0-----0-----0-----0-|---2-----2-----0-----7--6----|
G|-----9--------9--------1--------1----|---2--------2--------7--7----|
D|-------------------------------------|-----------------------------|
A|--0----------------------------------|------------------0----------|
E|--------------------0----------------|2----------------------------|

    
                                                                                                                                                                                                                                                                                                                                                                                                                                                                                                                                                                                                                                                                                                                                                                                                                                                                                                                                                                                                                                                                                                                                                                                              
E|-----9--9--------------5--5--7-|---9--9--------------5--5--7-|
B|-----10----10----0-----7--6----|---10----10----0-----7--6----|
G|-----9--------9--------7--7----|---9--------9--------7--7----|
D|--------------------0----------|------------------0----------|
A|--0----------------------------|0----------------------------|
E|-------------------------------|-----------------------------|

    
                                                                                                                                                                                                                                                                                                                                                                                                                                                                                                                                                                                                                                                                                                                                                                                                                                                                                                                                                                                                                                                                                                                                                                                              
E|-----9--9--------------0--0----------|---2--2--------------5--5--7-|
B|-----10----10----0-----0-----0-----0-|---2-----2-----0-----7--6----|
G|-----9--------9--------1--------1----|---2--------2--------7--7----|
D|-------------------------------------|-----------------------------|
A|--0----------------------------------|------------------0----------|
E|--------------------0----------------|2----------------------------|

    
                                                                                                                                                                                                                                                                                                                                                                                                                                                                                                                                                                                                                                                                                                                                                                                                                                                                                                                                                                                                                                                                                                                                                                                              
E|-----9--9--------------5--5--7-|---9--9--------------5--5--7-|
B|-----10----10----0-----7--6----|---10----10----0-----7--6----|
G|-----9--------9--------7--7----|---9--------9--------7--7----|
D|--------------------0----------|------------------0----------|
A|--0----------------------------|0----------------------------|
E|-------------------------------|-----------------------------|

    
                                                                                                                                                                                                                                                                                                                                                                                                                                                                                                                                                                                                                                                                                                                                                                                                                                                                                                                                                                                                                                                                                                                                                                                              
E|-----9--9--------------0--0----------|---2--2--------------5--5--7-|
B|-----10----10----0-----0-----0-----0-|---2-----2-----0-----7--6----|
G|-----9--------9--------1--------1----|---2--------2--------7--7----|
D|-------------------------------------|-----------------------------|
A|--0----------------------------------|------------------0----------|
E|--------------------0----------------|2----------------------------|

    
                                                                                                                                                                                                                                                                                                                                                                                                                                                                                                                                                                                                                                                                                                                                                                                                                                                                                                                                                                                                                                                                                                                                                                                              
E|-----9--9--------------5--5--7-|---9--9--------------5--5--7-|
B|-----10----10----0-----7--6----|---10----10----0-----7--6----|
G|-----9--------9--------7--7----|---9--------9--------7--7----|
D|--------------------0----------|------------------0----------|
A|--0----------------------------|0----------------------------|
E|-------------------------------|-----------------------------|

    
                                                                                                                                                                                                                                                                                                                                                                                                                                                                                                                                                                                                                                                                                                                                                                                                                                                                                                                                                                                                                                                                                                                                                                                              
E|-----9--9--------------0--0----------|---2--2--------------5--5--7-|
B|-----10----10----0-----0-----0-----0-|---2-----2-----0-----7--6----|
G|-----9--------9--------1--------1----|---2--------2--------7--7----|
D|-------------------------------------|-----------------------------|
A|--0----------------------------------|------------------0----------|
E|--------------------0----------------|2----------------------------|

    
                                                                                                                                                                                                                                                                                                                                                                                                                                                                                                                                                                                                                                                                                                                                                                                                                                                                                                                                                                                                                                                                                                                                                                                              
E|-----9--9--------------5--5--7-|---9--9--------------5--5--7-|
B|-----10----10----0-----7--6----|---10----10----0-----7--6----|
G|-----9--------9--------7--7----|---9--------9--------7--7----|
D|--------------------0----------|------------------0----------|
A|--0----------------------------|0----------------------------|
E|-------------------------------|-----------------------------|

    
                                                                                                                                                                                                                                                                                                                                                                                                                                                                                                                                                                                                                                                                                                                                                                                                                                                                                                                                                                                                                                                                                                                                                                                              
E|-----9--9--------------0--0----------|---2--2--------------5--5--7-|
B|-----10----10----0-----0-----0-----0-|---2-----2-----0-----7--6----|
G|-----9--------9--------1--------1----|---2--------2--------7--7----|
D|-------------------------------------|-----------------------------|
A|--0----------------------------------|------------------0----------|
E|--------------------0----------------|2----------------------------|

    
                                                                                                                                                                                                                                                                                                                                                                                                                                                                                                                                                                                                                                                                                                                                                                                                                                                                                                                                                                                                                                                                                                                                                                                              
E|-----9--9--------------5--5--7-|---9--9--------------5--5--7-|
B|-----10----10----0-----7--6----|---10----10----0-----7--6----|
G|-----9--------9--------7--7----|---9--------9--------7--7----|
D|--------------------0----------|------------------0----------|
A|--0----------------------------|0----------------------------|
E|-------------------------------|-----------------------------|

    
                                                                                                                                                                                                                                                                                                                                                                                                                                                                                                                                                                                                                                                                                                                                                                                                                                                                                                                                                                                                                                                                                                                                                                                              
E|-----9--9--------------0--0----------|---2--2--------------5--5--7-|
B|-----10----10----0-----0-----0-----0-|---2-----2-----0-----7--6----|
G|-----9--------9--------1--------1----|---2--------2--------7--7----|
D|-------------------------------------|-----------------------------|
A|--0----------------------------------|------------------0----------|
E|--------------------0----------------|2----------------------------|

    
                                                                                                                                                                                                                                                                                                                                                                                                                                                                                                                                                                                                                                                                                                                                                                                                                                                                                                                                                                                                                                                                                                                                                                                              
E|-----9--9--------------5--5--7-|---9--9--------------5--5--7-|
B|-----10----10----0-----7--6----|---10----10----0-----7--6----|
G|-----9--------9--------7--7----|---9--------9--------7--7----|
D|--------------------0----------|------------------0----------|
A|--0----------------------------|0----------------------------|
E|-------------------------------|-----------------------------|

    
                                                                                                                                                                                                                                                                                                                                                                                                                                                                                                                                                                                                                                                                                                                                                                                                                                                                                                                                                                                                                                                                                                                                                                                              
E|-----9--9--------------0--0----------|---2--2--------------5--5--7-|
B|-----10----10----0-----0-----0-----0-|---2-----2-----0-----7--6----|
G|-----9--------9--------1--------1----|---2--------2--------7--7----|
D|-------------------------------------|-----------------------------|
A|--0----------------------------------|------------------0----------|
E|--------------------0----------------|2----------------------------|

    
                                                                                                                                                                                                                                                                                                                                                                                                                                                                                                                                                                                                                                                                                                                                                                                                                                                                                                                                                                                                                                                                                                                                                                                              
E|-----9--9--------------5--5--7-|---9--9--------------5--5--7-|
B|-----10----10----0-----7--6----|---10----10----0-----7--6----|
G|-----9--------9--------7--7----|---9--------9--------7--7----|
D|--------------------0----------|------------------0----------|
A|--0----------------------------|0----------------------------|
E|-------------------------------|-----------------------------|

    
                                                                                                                                                                                                                                                                                                                                                                                                                                                                                                                                                                                                                                                                                                                                                                                                                                                                                                                                                                                                                                                                                                                                                                                              
E|-----9--9--------------0--0----------|---2--2--------------5--5--7-|
B|-----10----10----0-----0-----0-----0-|---2-----2-----0-----7--6----|
G|-----9--------9--------1--------1----|---2--------2--------7--7----|
D|-------------------------------------|-----------------------------|
A|--0----------------------------------|------------------0----------|
E|--------------------0----------------|2----------------------------|

    
                                                                                                                                                                                                                                                                                                                                                                                                                                                                                                                                                                                                                                                                                                                                                                                                                                                                                                                                                                                                                                                                                                                                                                                              
E|-----9--9--------------5--5--7-|---9--9--------------5--5--7-|
B|-----10----10----0-----7--6----|---10----10----0-----7--6----|
G|-----9--------9--------7--7----|---9--------9--------7--7----|
D|--------------------0----------|------------------0----------|
A|--0----------------------------|0----------------------------|
E|-------------------------------|-----------------------------|

    
                                                                                                                                                                                                                                                                                                                                                                                                                                                                                                                                                                                                                                                                                                                                                                                                                                                                                                                                                                                                                                                                                                                                                                                              
E|-----9--9--------------0--0----------|---2--2--------------5--5--7-|
B|-----10----10----0-----0-----0-----0-|---2-----2-----0-----7--6----|
G|-----9--------9--------1--------1----|---2--------2--------7--7----|
D|-------------------------------------|-----------------------------|
A|--0----------------------------------|------------------0----------|
E|--------------------0----------------|2----------------------------|

    
                                                                                                                                                                                                                                                                                                                                                                                                                                                                                                                                                                                                                                                                                                                                                                                                                                                                                                                                                                                                                                                                                                                                                                                              
E|-----9--9--------------5--5--7-|---9--9--------------5--5--7-|
B|-----10----10----0-----7--6----|---10----10----0-----7--6----|
G|-----9--------9--------7--7----|---9--------9--------7--7----|
D|--------------------0----------|------------------0----------|
A|--0----------------------------|0----------------------------|
E|-------------------------------|-----------------------------|

    
                                                                                                                                                                                                                                                                                                                                                                                                                                                                                                                                                                                                                                                                                                                                                                                                                                                                                                                                                                                                                                                                                                                                                                                              
E|-----9--9--------------0--0----------|---2--2--------------5--5--7-|
B|-----10----10----0-----0-----0-----0-|---2-----2-----0-----7--6----|
G|-----9--------9--------1--------1----|---2--------2--------7--7----|
D|-------------------------------------|-----------------------------|
A|--0----------------------------------|------------------0----------|
E|--------------------0----------------|2----------------------------|

    
                                                                                                                                                                                                                                                                                                                                                                                                                                                                                                                                                                                                                                                                                                                                                                                                                                                                                                                                                                                                                                                                                                                                                                                              
E|-----9--9--------------5--5--7-|---9--9--------------5--5--7-|
B|-----10----10----0-----7--6----|---10----10----0-----7--6----|
G|-----9--------9--------7--7----|---9--------9--------7--7----|
D|--------------------0----------|------------------0----------|
A|--0----------------------------|0----------------------------|
E|-------------------------------|-----------------------------|

    
                                                                                                                                                                                                                                                                                                                                                                                                                                                                                                                                                                                                                                                                                                                                                                                                                                                                                                                                                                                                                                                                                                                                                                                              
E|-----9--9--------------0--0----------|---2--2--------------5--5--7-|
B|-----10----10----0-----0-----0-----0-|---2-----2-----0-----7--6----|
G|-----9--------9--------1--------1----|---2--------2--------7--7----|
D|-------------------------------------|-----------------------------|
A|--0----------------------------------|------------------0----------|
E|--------------------0----------------|2----------------------------|

About Hullabaloo Soundtrack : The album comprises one disc of previously released B-sides and a second disc of live recordings from the band's performances at Le ZĂ©nith in Paris, 2001 . The soundtrack to Hullabaloo: Live at Le Zenith, Paris, both released on 1 July 2002 on Mushroom Taste Records . All tracks are written by Matthew Bellamy (except "What's He Building?"). All tracks are written by Matthew Bellamy (except "What's He Building?"). It had a contribution from notable artists like Hullabaloo Soundtrack. It had an affiliation to bands - Muse. Its music is influenced by genres - alternative rock.

tabs and chords, guitar tabs, music transcription, music technology, deep learning, music information retrieval, transcribe into tabs & chords, chordify, music renditions, songsterr, reverbnation, tabulature, bollywood chords, ultimate guitar, yousician, guitar lessons, acoustic guitar, electric guitar, guitar tuner, 911 tabs