Guitar Tabs for Out Of Spite

(/) Slide Up  (\) Slide Down  (h) Hammer On  (p) Pull Off  (b) Bend (r) Release (v) Vibrato (x) Muted

Tabs for Song : OUT OF SPITE

COUPLET 
E|--------------------------------------------
B|--------------------------------------------
G|--------------------------------------------
D|--------------------------------------------
A|--5--6--0--3-----5--6--0--3-----------------
D|--5--6--0--3-----5--6--0--3-----0--0--0--0--

E|--------------------------------------------
B|-----------------------------------------------
G|-----------------------------------------------
D|-----------------------------------7--8--7-----
A|--5--6--0--3-----5--6--0--3--------5--6--5-----
D|--5--6--0--3-----5--6--0--3-----0-----------0--



REFRAIN

E|--------------------------------------------
B|--------------------------------------------
G|--------------------------------------------
D|--------------8--7--------------------------
A|--5--6--3-----6--5--6-----5--6--1-----3--0--
D|--5--6--3-----------6-----5--6--1-----3--0--

E|-----------------------------------------
B|-----------------------------------------
G|-----------------------------------------
D|--------------8--7-----------------------
A|--5--6--3-----6--5--6-----5--6-----3-----
D|--5--6--3-----------6-----5--6-----3-----

BREAK


E|--------------------------------------------------------------------------------------------------------------
B|--------------------------------------------------------------------------------------------------------------
G|--------------------------------------------------------------------------------------------------------------
D|-----------------------------8--------7-----------------------------------------------------3-----------------
A|--5--------6--------3--------6--------5--------6--------5--------6--------3--------1--------1--------3--------
D|--5--0--0--6--0--0--3--0--0-----0--0-----0--0--6--0--0--5--0--0--6--0--0--3--0--0--1--0--0-----0--0--3--0--0--

E|--------------------------------------------------------------------------------------------------------
B|--------------------------------------------------------------------------------------------------------
G|--------------------------------------------------------------------------------------------------------
D|-----------------------------8--------7-----------------------------------------------------3-----------
A|--5--------6--------3--------6--------5--------6--------5--------6--------3--------1--------1--------3--
D|--5--0--0--6--0--0--3--0--0-----0--0-----0--0--6--0--0--5--0--0--6--0--0--3--0--0--1-----------------3--

tabs and chords, guitar tabs, music transcription, music technology, deep learning, music information retrieval, transcribe into tabs & chords, chordify, music renditions, songsterr, reverbnation, tabulature, bollywood chords, ultimate guitar, yousician, guitar lessons, acoustic guitar, electric guitar, guitar tuner, 911 tabs