Guitar Tabs for Oo Jane Jana Intro

(/) Slide Up  (\) Slide Down  (h) Hammer On  (p) Pull Off  (b) Bend (r) Release (v) Vibrato (x) Muted

Tabs for Song : 

Song lyrics here
E|-----------------------------------------------------------------------------------
B|-----------------------------------------------------------------------------------
G|-----------------------------------------------------------------------------------
D|--7--7--9--10-9--7-----------------------9-----10-9--7--------7--7-----9--9--7--7--
A|--------------------10-7-----7--7--10-7-----------------10-------------------------
E|-----------------------------------------------------------------------------------

E|-----------------------------------1--1--1-----1--1--1-----1--1--1--1--
B|-----------------------------------1--1--1-----1--1--1-----1--1--1--1--
G|-----9--7--------------------------2--2--2-----2--2--2-----2--2--2--2--
D|--7--------10-9--7-----7-----------3--3--3-----3--3--3-----3--3--3--3--
A|--------------------10-------------3--3--3-----3--3--3-----3--3--3--3--
E|-----------------------------10/0--1--1--1-----1--1--1-----1--1--1--1--

E|-----------------------------------1--1--1-----1--1--1-----1--1--1--1--
B|-----------------------------------1--1--1-----1--1--1-----1--1--1--1--
G|-----9--7--------------------------2--2--2-----2--2--2-----2--2--2--2--
D|--7--------10-9--7-----7-----------3--3--3-----3--3--3-----3--3--3--3--
A|--------------------10-------------3--3--3-----3--3--3-----3--3--3--3--
E|-----------------------------10\0--1--1--1-----1--1--1-----1--1--1--1--

E|--------------------------------------------------
B|--------------------------------------------------
G|-----------9--7--9--------7--7--------------------
D|--7--7--7-----------10----------9--7---9/7---7p5--
A|--------------------------------------------------
E|--------------------------------------------------

E|--------------------------------------------------------
B|--------------------------------------------------------
G|-----------------------------9-----7--9--5--7---4h5-----
D|--5--9--9--9--9--9--9-----7--------------------------5--
A|--------------------------------------------------------
E|--------------------------------------------------------

Song lyrics here
E|--
B|--
G|--
D|--
A|--
E|--

Paste any tab in acousterr's tab maker and we'll play it !!!
Now supports capo and sound effects for vibrato/pull-off/hammer/bends/mutes etc !!! Checkout help section
tabs and chords, guitar tabs, music transcription, music technology, deep learning, music information retrieval, transcribe into tabs & chords, chordify, music renditions, songsterr, reverbnation, tabulature, bollywood chords, ultimate guitar, yousician, guitar lessons, acoustic guitar, electric guitar, guitar tuner, 911 tabs