Ukulele Tabs for Oh Oh Jane Jana Ukulele

mere khaw mere khayalo ki rani
A|-----7-----3--------5-----2--------------------2---2h-3p2--------
E|--5--------------5--------------3--3-----5-----------------5-----
C|-----------------------------------------------------------------
G|-----------------------------------------------------------------

kisi din banegi humari kahani
A|--------------3-----7--5-----2--------------------2---2h-3p2--------
E|-----5--5--------------------------3--3-----5-----------------5-----
C|--------------------------------------------------------------------
G|--------------------------------------------------------------------

ye meri bekhudi, ye kasam maine li
A|--7--7---7/9-----9--7---7h-9p7--5-----5--5---5h7-----7--5---5h-7p5--3-----
E|--------------------------------------------------------------------------
C|--------------------------------------------------------------------------
G|--------------------------------------------------------------------------

pyar me ek din meri jaan tujhe hai pana
A|--2-----2-----2-----2-----3--5---5/7--5--7-----5---5h-7p5---3h-5p3---2h-3p2--0--
E|-----5-----------5--------------------------------------------------------------
C|--------------------------------------------------------------------------------
G|--------------------------------------------------------------------------------

solo..
A|--0-----0--0--7--5--7--3------3/5--5--2-----2---0h-2p0--------
E|-----------------------------------------5--------------3-----
C|--------------------------------------------------------------
G|--------------------------------------------------------------


A|-----------------------------------
E|-----3--7-----7--7--7--7-----7-----
C|-----------------------------------
G|-----------------------------------


A|--------------7--5--7-----5-----------------
E|---3/5--5--5-----------8------7/-8\7-----5--
C|--------------------------------------7-----
G|--------------------------------------------
tabs and chords, guitar tabs, music transcription, music technology, deep learning, music information retrieval, transcribe into tabs & chords, chordify, music renditions, songsterr, reverbnation, tabulature, bollywood chords, ultimate guitar, yousician, guitar lessons, acoustic guitar, electric guitar, guitar tuner, 911 tabs