Guitar Tabs for On The Loose - Niall Horan Tabs

(/) Slide Up  (\) Slide Down  (h) Hammer On  (p) Pull Off  (b) Bend (r) Release (v) Vibrato (x) Muted

Tabs for Song : On the Loose

Intro tune .. runs in background all the time
    Bm                   Em7                  G                    A
E|--------------------------------------------------------------------------------------
B|-----3--x-----3--x--------8--x-----8--x-----------------------------------------------
G|-----4--x-----4--x--------7--x-----7--x--------4--x-----4--x--------6--x-----6--x-----
D|-----4--x-----4--x--------9--x-----9--x--------5--x-----5--x--------7--x-----7--x-----
A|--2-----x--2-----x-----7-----x--7-----x--------5--x-----5--x--------7--x-----7--x-----
E|--------------------------------------------3-----x--3-----x-----5-----x--5-----x-----
                        

I know what she's like
E|-----------------------
B|-----------------------
G|-----7--7---4/6--------
D|--4--------------4-----
A|-----------------------
E|-----------------------

She's out of her mind
E|-----------------------
B|-----------------------
G|-----7--7---4/6--------
D|--4--------------4-----
A|-----------------------
E|-----------------------

And wraps herself around the truth
E|--------------------------------
B|--------------------------------
G|-----7--7---4/6--2------2h4-----
D|--4-----------------4-----------
A|--------------------------------
E|--------------------------------

She'll jump on that flight 
E|-----------------------
B|-----------------------
G|-----7--7---4/6--------
D|--4--------------4-----
A|-----------------------
E|-----------------------

and meet you that night
E|-----------------------
B|-----------------------
G|-----7--7---4/6--------
D|--4--------------4-----
A|-----------------------
E|-----------------------

And make you tear up the room
E|--------------------------------
B|--------------------------------
G|-----7--7---4/6--2------2h4-----
D|--4-----------------4-----------
A|--------------------------------
E|--------------------------------

Yeah, she loves when everybody's watching
E|-----------------------------------
B|--7---5h7--------------------------
G|-----------4--4-----4-----4--7-----
D|-----------------7-----7-----------
A|-----------------------------------
E|-----------------------------------

She knows the way her body moves
E|-----------------------------------
B|--7---5h7--------------------------
G|-----------4--4-----4------7p6-----
D|-----------------7-----7-----------
A|-----------------------------------
E|-----------------------------------

She loves the way they all crawl back when she says
E|-----------------------------------
B|--7---5h7--------------------------
G|-----------4--4--4--4--4-----4-----
D|--------------------------7--------
A|-----------------------------------
E|-----------------------------------

That she loves nobody else but you
E|--------------------------------
B|--7---5h7-----------------------
G|-----------4--4-----4------7p6--
D|-----------------7-----7--------
A|--------------------------------
E|--------------------------------


She's on the loose (she's coming, she's coming)
E|--------------------------------------------
B|------------5/7-----------------------------
G|-----4--4-----------7--6--7-----7--6--7-----
D|--7-----------------------------------------
A|--------------------------------------------
E|--------------------------------------------


Solo
E|--------------------------------------------------------------
B|--------5-----------------7--5--------------10-8--------------
G|-----4-----7--------------------------4--------------11-9-----
D|--4--------------4--5--------------7--------------------------
A|--------------------------------------------------------------
E|--------------------------------------------------------------

E|--------------------------------------------------------------
B|--------5-----------------7--5--------------10-8--------------
G|-----4-----7--------------------------4--------------11-9-----
D|--4--------------4--5--------------7--------------------------
A|--------------------------------------------------------------
E|--------------------------------------------------------------



E|--------5-----------
B|---5h7------5p3-----
G|-----------------4--
D|--------------------
A|--------------------
E|--------------------
tabs and chords, guitar tabs, music contests, music covers, songsterr, reverbnation, renditions, tabulature, bollywood chords, ultimate guitar, yousician, guitar lessons, torrins, fender, gibson, acoustic guitar, electric guitar, youtube covers, gootar, guitar tuner, A-Z tabs, 911 tabs