Guitar Tabs for On My Way

I'm sorry but
Don't wanna talk, I need a moment before I go
E|------5/7--5--4-----------5--4--------------------------------------------
B|---------------------5/7--------5--7---7/10-9--7-----5--5--7---7/9--------
G|--4-----------------------------------------------------------------------
D|--------------------------------------------------------------------------
A|--------------------------------------------------------------------------
E|--------------------------------------------------------------------------

It's nothing personal
E|-----------4-----------------------
B|---5/7--7-----5---4h-5p4-----------
G|--------------------------6--------
D|-----------------------------------
A|-----------------------------------
E|-----------------------------------

I draw the blinds
They don't need to see me cry
E|------5/7--5--4-----7--7--7--7--9--11-11/12----
B|-----------------------------------------------
G|--4--------------------------------------------
D|-----------------------------------------------
A|-----------------------------------------------
E|-----------------------------------------------

'Cause even if they understand
They don't understand
E|--------------------------------------------------
B|---7/9--10-10-10-10-10/12-10-9---5/7--7--7--9--5--
G|--------------------------------------------------
D|--------------------------------------------------
A|--------------------------------------------------
E|--------------------------------------------------

So then when I'm finished
I'm all 'bout my business and ready to save the world
E|--------------------------------------------------------------------
B|-----------------7--9--9-----------7--9--9--7--7--5---5/7--5--------
G|--4---4/6--6--6-----------6--6--6------------------------------6\4--
D|--------------------------------------------------------------------
A|--------------------------------------------------------------------
E|--------------------------------------------------------------------

I'm taking my misery
Make it my bitch; can't be everyone's favorite girl
E|--------------------------------------------------------------------
B|-----------------7--9--9-----------7--9--9--7--7--5--7--9---9/10----
G|--4---4/6--6--6-----------6--6--6-----------------------------------
D|--------------------------------------------------------------------
A|--------------------------------------------------------------------
E|--------------------------------------------------------------------

So take aim and fire away
I've never been so wide awake
E|--9---9/12-9--12-11-9--------------------------------------
B|-----------------------12----12-12/14-12-10-12/14-12-10-9--
G|-----------------------------------------------------------
D|-----------------------------------------------------------
A|-----------------------------------------------------------
E|-----------------------------------------------------------

No, nobody but me can keep me safe
And I'm on my way
E|-----------------------9-----------------------------------
B|--10----------9--10-9--------------------------------------
G|--------11-11-------------11-9--8---9/11-9---8h-9p8--------
D|-----------------------------------------------------11----
A|-----------------------------------------------------------
E|-----------------------------------------------------------

flute part
E|---9/12-12-11-9--12-11-11p9-----------9--9--------------------------
B|-----------------------------12----12-------12-10----12----12-10-9--
G|--------------------------------------------------------------------
D|--------------------------------------------------------------------
A|--------------------------------------------------------------------
E|--------------------------------------------------------------------


E|-----------------------9--9-----------------------------------
B|--10-10-10-9-----10-9-----------------------------------------
G|--------------11-------------9--11----11-9--8--11-9-----------
D|-----------------------------------------------------11-11----
A|--------------------------------------------------------------
E|--------------------------------------------------------------
tabs and chords, guitar tabs, music transcription, music technology, deep learning, music information retrieval, transcribe into tabs & chords, chordify, music renditions, songsterr, reverbnation, tabulature, bollywood chords, ultimate guitar, yousician, guitar lessons, acoustic guitar, electric guitar, guitar tuner, 911 tabs