Guitar Tabs for O Nadaan Parindein - Rockstar Tabs

(/) Slide Up  (\) Slide Down  (h) Hammer On  (p) Pull Off  (b) Bend (r) Release (v) Vibrato

Tabs for Song : O Nadaan Parindein

Oh Naadaan Parindey ghar aaja
E|--------0-----0--2--0-----------------
B|--2--2-----------------3--2--0--2-----
G|--------------------------------------
D|--------------------------------------
A|--------------------------------------
E|--------------------------------------

Oh Naadaan Parindey ghar aaja
E|--------0-----0--4--0-----------------
B|--2--2-----------------3--2--0--2-----
G|--------------------------------------
D|--------------------------------------
A|--------------------------------------
E|--------------------------------------


Ghar aaja 
E|--------------------
B|--3--2--0-----0-----
G|-----------2--------
D|--------------------
A|--------------------
E|--------------------

Ghar aaja 
E|--------------------
B|--2--0--------------
G|--------2--1--2-----
D|--------------------
A|--------------------
E|--------------------

Ghar aaja aa aa
E|-----------------------------------------------------
B|--0--------------------------2--0--2-----------------
G|-----2--1-----1-----2--4--2-----------2--4-----------
D|-----------4--------------------------------6--7-----
A|-----------------------------------------------------
E|-----------------------------------------------------

Kyun desh-bidesh phire maara
E|--------------------------------
B|--------------------------------
G|--6--4--6--4--6--4--6--6--6-----
D|--------------------------------
A|--------------------------------
E|--------------------------------

Kyun haal-behaal thaka haara
E|-----------------------------------
B|-----------------------------------
G|--6-----------9--7--6--------------
D|-----7--9--9-----------7--9--9-----
A|-----------------------------------
E|-----------------------------------

Kyun desh-bidesh phire maara
E|--------------------------------
B|--------------------------------
G|--6--4--6--4--6--4--6--6--6-----
D|--------------------------------
A|--------------------------------
E|--------------------------------

Tu raat-biraat ka banjara
E|-----------------------------------
B|-----------------------------------
G|--6-----------9--7--6--------------
D|-----7--9--9-----------7--9--9-----
A|-----------------------------------
E|-----------------------------------

Oh Naadaan Parindey ghar aaja
E|--------0-----0--0--0-----------------
B|--2--2-----------------3--2--0--2-----
G|--------------------------------------
D|--------------------------------------
A|--------------------------------------
E|--------------------------------------

Ghar aaja 
E|--------------------
B|--3--2--0-----0-----
G|-----------2--------
D|--------------------
A|--------------------
E|--------------------

Ghar aaja 
E|--------------------
B|--2--0--------------
G|--------2--1--2-----
D|--------------------
A|--------------------
E|--------------------

Ghar aaja aa aa
E|-----------------------------------------------------
B|--0--------------------------2--0--2-----------------
G|-----2--1-----1-----2--4--2-----------2--4-----------
D|-----------4--------------------------------6--7-----
A|-----------------------------------------------------
E|-----------------------------------------------------

tabs and chords, guitar tabs, music transcription, music technology, deep learning, music information retrieval, transcribe into tabs & chords, chordify, music renditions, songsterr, reverbnation, tabulature, bollywood chords, ultimate guitar, yousician, guitar lessons, acoustic guitar, electric guitar, guitar tuner, 911 tabs