Guitar Tabs for Rockstar

(/) Slide Up  (\) Slide Down  (h) Hammer On  (p) Pull Off  (b) Bend (r) Release (v) Vibrato

Tabs for Song : 

I been fuckin hoes and poppin pillies man I feel just like a rock star (repeat x8)
E|-----------------------------------------------------------------
B|-----------------------------------------------------------------
G|-----------------------------------------------------------------
D|--8--8--8--8--8--8--8--8--8--8--8--8--7--7--7--7--7---7/-8\7--5v-
A|-----------------------------------------------------------------
E|-----------------------------------------------------------------

Song lyrics here
E|-----------------------------------------------------------------------
B|-----------------------------------------------------------------------
G|--7--7--7--7--7--7--7v----7--7--10-10-10-10-10v---7--7--7--7--7--7--7v-
D|-----------------------------------------------------------------------
A|-----------------------------------------------------------------------
E|-----------------------------------------------------------------------

E|-----------------------------------------------------------------------------------
B|-----------------------------------------------------------------------------------
G|-----7--7--10-10-10-10v----8p7-----------------------10-10-10-10v----8p7-----------
D|--------------------------------10v---8--------8--8-----------------------10v---8--
A|-----------------------------------------------------------------------------------
E|-----------------------------------------------------------------------------------

Now supports capo and sound effects for vibrato/pull-off/hammer/bends etc !!! Checkout help section
tabs and chords, guitar tabs, music contests, music covers, songsterr, reverbnation, renditions, tabulature, bollywood chords, ultimate guitar, yousician, guitar lessons, torrins, fender, gibson, acoustic guitar, electric guitar, youtube covers, gootar, guitar tuner, A-Z tabs, 911 tabs