Guitar Tabs for Numb _ Linkin Park Tabs

Tabs for Song : Numb


E|-----------5-----8-----7--------------8-----7--------------------5-----
B|--5--8--5--------------------5--8--5--------------8-----5--8--5--------
G|-----------------------------------------------------------------------
D|-----------------------------------------------------------------------
A|-----------------------------------------------------------------------
E|-----------------------------------------------------------------------

I'm tired of being what you want me to be
E|--------------------------------
B|--5--5--5--5--6--5--5-----------
G|-----------------------7--5-----
D|--------------------------------
A|--------------------------------
E|--------------------------------


Feeling so faithless, lost under the surface
E|--------------------------------------
B|--5--5--------------5--5--------------
G|--------7--5--7-----------7--5--7-----
D|-----------------5--------------------
A|--------------------------------------
E|--------------------------------------


don't know what you're expecting of me
E|--------------------------------
B|--5--5--5--5--6--5--5-----------
G|-----------------------7--5-----
D|--------------------------------
A|--------------------------------
E|--------------------------------


Put under the pressure of walking in your shoes
E|-----------------------------------------
B|-----5--5--------------5-----------5-----
G|-----------7--5--7--------7--5--7--------
D|--5-----------------5--------------------
A|-----------------------------------------
E|-----------------------------------------


Every step that I take is another mistake to you
E|--------5--5-----------5--5-----------------
B|--5--5--------8--5--5--------8--5--6--8-----
G|--------------------------------------------
D|--------------------------------------------
A|--------------------------------------------
E|--------------------------------------------


I've become so numb, I can't feel you there
E|--5-----5--5-----5--5-----5--5--5--7--------
B|--------------8-----------------------8-----
G|--------------------------------------------
D|--------------------------------------------
A|--------------------------------------------
E|--------------------------------------------


Become so tired, so much more aware
E|--5--5-----5--5-----5--5--5-----5--5-----
B|--------8--------------------8-----------
G|-----------------------------------------
D|-----------------------------------------
A|-----------------------------------------
E|-----------------------------------------


i am becoming this all I want to do
E|--5--5--5-----5-----5--5--5--7--------
B|-----------8--------------------8-----
G|--------------------------------------
D|--------------------------------------
A|--------------------------------------
E|--------------------------------------


Is be more like me and be less like you
E|--5--5--5-----5--5--5--5-----5-----
B|-----------8--------------8--------
G|-----------------------------------
D|-----------------------------------
A|-----------------------------------
E|-----------------------------------


Can't you see that you're smothering me?
E|--5--5--5--5--------5-----------
B|--------------8--8-----8--8-----
G|--------------------------------
D|--------------------------------
A|--------------------------------
E|--------------------------------


Holding too tightly, afraid to lose control
E|--5-----------------------------------
B|-----8--8-----5--6--5--------5--5-----
G|-----------------------7--7-----------
D|--------------------------------------
A|--------------------------------------
E|--------------------------------------


'Cause everything that you thought I would be
E|--------------------------------
B|--------------5--6--5--3--------
G|-----9--9--9--------------5-----
D|--7-----------------------------
A|--------------------------------
E|--------------------------------


Has fallen apart right in front of you
E|--------------------------------------
B|-----5--5-----------5-----------5-----
G|-----------7--5--------7--5--7--------
D|--5-----------------------------------
A|--------------------------------------
E|--------------------------------------


Every step that I take is another mistake to you
E|--------5--5-----------5--5-----------------
B|--5--5--------8--5--5--------8--5--------8--
G|-----------------------------------9--10----
D|--------------------------------------------
A|--------------------------------------------
E|--------------------------------------------


And every second I waste is more than I can take!
E|-----------5--5--------------8--7--8--7--5-----
B|--5--5--5--------8--5--5--5--------------------
G|-----------------------------------------------
D|-----------------------------------------------
A|-----------------------------------------------
E|-----------------------------------------------


I've become so numb, I can't feel you there
E|--5-----5--5-----5--5-----5--5--5--7--------
B|--------------8-----------------------8-----
G|--------------------------------------------
D|--------------------------------------------
A|--------------------------------------------
E|--------------------------------------------
tabs and chords, guitar tabs, music transcription, music technology, deep learning, music information retrieval, transcribe into tabs & chords, chordify, music renditions, songsterr, reverbnation, tabulature, bollywood chords, ultimate guitar, yousician, guitar lessons, acoustic guitar, electric guitar, guitar tuner, 911 tabs