Guitar Tabs for Nothing's Gonna Change My Love For You - George Benson

Song: Nothing's Gonna Change My Love For You
Artist: George Benson

bpm 140

[Verse 1]
.....c#.............G#...............A#m....
If I had to live my life without you near me   
e|----------------------------------------|
B|-----------------------------4--2-------|
G|--------1-----1-----1-----1-------------|
D|--3--4-----3-----3-----3-----------3----|
A|----------------------------------------|
E|----------------------------------------|

......................F#...
The days would all be empty
e|-------------------------|
B|-----1--2--1-------------|
G|--------------1----------|
D|--3--------------3-------|
A|--------------------4----|
E|-------------------------|

....D#m..................G#..
The nights would seem so long
e|----------------------|
B|----------------------|
G|--------1--3--1-------|
D|-----4-----------1----|
A|--4-------------------|
E|----------------------|


[Verse 2]
(same as verse 1)

With you I see forever oh so clearly
I might have been in love before
But it never felt this strong

[Bridge 1]

....F#...................C#..........
Our dreams are young and we both know
e|----------------------------|
B|--------1--2--4--2----------|
G|--1--3--------------1--1----|
D|----------------------------|
A|----------------------------|
E|----------------------------|

........D#m..............C#........
They'll take us where we want to go
e|-----2--1--2--4--1----------|
B|--------------------4--2----|
G|--1-------------------------|
D|----------------------------|
A|----------------------------|
E|----------------------------|

F#..............C#..........
Hold me now ... Touch me now
e|----------------------|
B|-----1--2-----2--2----|
G|--3--------1----------|
D|----------------------|
A|----------------------|
E|----------------------|

D#m.............G#..............
I don't want to live without you
e|--------------1-------------|
B|-----1--2--------4--2--4----|
G|--3--------3----------------|
D|----------------------------|
A|----------------------------|
E|----------------------------|


[Chorus]

C#........................F#..........
Nothing's gonna change my love for you
e|--1--1--1--1--1----------------|
B|-------------------------------|
G|-----------------1--1--3--3----|
D|-------------------------------|
A|-------------------------------|
E|-------------------------------|

....G#...................Fm.................
You ought to know by now how much I love you
e|--------------------------2--1----------|
B|-----4--4--4--4--4--------------4--2----|
G|--3-------------------------------------|
D|--------------------4--3----------------|
A|----------------------------------------|
E|----------------------------------------|

A#m...........G#............
One thing you can be sure of
e|-----------1-------------|
B|--2--1--2-----4-----4----|
G|-----------------3-------|
D|-------------------------|
A|-------------------------|
E|-------------------------|

F#.................G#.................
I'll never ask for more than your love
e|----------------------------------|
B|--2--2--2--2--1--1----------------|
G|--------------------3--3--1--1----|
D|----------------------------------|
A|----------------------------------|
E|----------------------------------|


Nothing's gonna change my love for you
You ought to know by now how much I love you


A#m.....................G#....................
The world may change my whole life through but
e|-----------------1-------------|
B|--2--2--2--1--2-----4-----4----|
G|-----------------------3-------|
D|-------------------------------|
A|-------------------------------|
E|-------------------------------|

F#..............G#.................C#.
Nothing's gonna change my love for you
e|--------------------------------
B|--2--2--2--2--2--1-----1--2-----
G|--------------------3-----------
D|--------------------------------
A|--------------------------------
E|--------------------------------



[Verse 3]
(same as verse 1)

If the road ahead is not so easy
Our love will lead the way for us
Like a guiding star

I'll be there for you if you should need me
You don't have to change a thing
I love you just the way you are


[Bridge 2]
(same as bridge 1)

So come with me and share the view
I'll help you see forever too
Hold me now ... Touch me now
I don't want to live without you


(repeat chorus) (x2)


[Chorus]
(one key higher)

D.........................G...........
Nothing's gonna change my love for you
e|--2--2--2--2--2----------------|
B|-----------------------0--0----|
G|-----------------2--2----------|
D|-------------------------------|
A|-------------------------------|
E|-------------------------------|

....A........................F#m............
You ought to know by now how much I love you
e|-----0--0--0--0--0--------3--2--0-------|
B|--0--------------------------------3----|
G|--------------------0-------------------|
D|-----------------------4----------------|
A|----------------------------------------|
E|----------------------------------------|

Bm............A.............
One thing you can be sure of
e|-----------2--0-----0----|
B|--3--2--3--------0-------|
G|-------------------------|
D|-------------------------|
A|-------------------------|
E|-------------------------|

G..................A..................
I'll never ask for more than your love
e|-------------------------------|
B|--3--3--3--3--2--2-------------|
G|--------------------2--0-------|
D|--------------------------0----|
A|-------------------------------|
E|-------------------------------|


[Solo]

e|--5--6--8---8/10-----------------------5/6--5--3--1-----5--3----------|
B|-----------------10-10\8--6-----3--3--------------------------3--6--5-|
G|----------------------------------------------------------------------|
D|----------------------------------------------------------------------|
A|----------------------------------------------------------------------|
E|----------------------------------------------------------------------|


[Chorus]
(one key higher)

D.........................G...........
Nothing's gonna change my love for you
....A........................F#m............
You ought to know by now how much I love you

Bm......................A....................
The world may change my whole life through but
e|-----------------2--0-----0----|
B|--3--3--3--2--3--------0-------|
G|-------------------------------|
D|-------------------------------|
A|-------------------------------|
E|-------------------------------|

G...............A..................D..
Nothing's gonna change my love for you
e|-----------------------------0----|
B|--3--3--3--3--3--3--0--2--3-----3-|
G|----------------------------------|
D|----------------------------------|
A|----------------------------------|
E|----------------------------------|
tabs and chords, guitar tabs, music transcription, music technology, deep learning, music information retrieval, transcribe into tabs & chords, chordify, music renditions, songsterr, reverbnation, tabulature, bollywood chords, ultimate guitar, yousician, guitar lessons, acoustic guitar, electric guitar, guitar tuner, 911 tabs