Guitar Tabs for Nothings Gonna Change

(/) Slide Up  (\) Slide Down  (h) Hammer On  (p) Pull Off  (b) Bend (r) Release (v) Vibrato (x) Muted

Tabs & Chords
BPM : 144.0
Check Track 2 for Chord Positions 

       D              G        A        F#          Bm    E              D     A           D  
E|--------------14----------------------------------------------------------------------------
B|--------------------15----------14----15----14-------------------17----14-------------------
G|-----------------------14----16-------------------16----16----16----------------------------
D|--------------------------------------------------------------------------------------------
A|-----17-17-------------------------------------------------------------------0-----0--------
E|-----------------------------------------------------------------------------------------14-

                            A                    Bm             F#m               G           
E|--------------------------------------------0-----------------------------------------------
B|--------------------------------------------------------------------------------------------
G|-----------------------------------------------------------------------------------------16-
D|--------------------------------------------------------------------------------------------
A|-----------------------------------------17----17----17----16-17----16----------------------
E|--17----14----17----14----17-16----17-------------------------------------3-----3-----3-----

Guitar Tabs for Nothings Gonna Change






       D              G        A        F#          Bm    E              D     A           D  
E|-----2--------------3--------0--------2-----------2-----0--------------2-----0-----------2--
B|-----3--------------3--------2--------2-----------3-----0--------------3-----2-----------3--
G|-----2--------------4--------2--------3-----------4-----1--------------2-----2-----------2--
D|-----0--------------5--------2--------4-----------4-----2--------------0-----2-----------0--
A|--------------------5--------0--------4-----------2-----2--------------------0--------------
E|--------------------3-----------------2-----------------0-----------------------------------

                            A                    Bm             F#m               G           
E|--------------------------0--------------------2--------------2-----------------3-----------
B|--------------------------2--------------------3--------------2-----------------3-----------
G|--------------------------2--------------------4--------------2-----------------4-----------
D|--------------------------2--------------------4--------------4-----------------5-----------
A|--------------------------0--------------------2--------------4-----------------5-----------
E|--------------------------------------------------------------2-----------------3-----------

tabs and chords, guitar tabs, music transcription, music technology, deep learning, music information retrieval, transcribe into tabs & chords, chordify, music renditions, songsterr, reverbnation, tabulature, bollywood chords, ultimate guitar, yousician, guitar lessons, acoustic guitar, electric guitar, guitar tuner, 911 tabs