Guitar Tabs for Nothing Else Matters Easy Tab

(/) Slide Up  (\) Slide Down  (h) Hammer On  (p) Pull Off  (b) Bend (r) Release (v) Vibrato (x) Muted

Tabs for Song : 

Song lyrics here
E|-----------0-----------------0-----------------0--------------------------------------------
B|--------0-----0-----------0-----0--0--0-----0-----0-----------0--1---0h-1p0-----0-----------
G|-----0-----------0-----0-----------------0-----------0-----0-----------------2-----2--0-----
D|--2-----------------2-----------------2--------2--------2--------------------------------2--
A|--------------------------------------------------------------------------------------------
E|--------------------------------------------------------------------------------------------

E|--------------0---------------------2h-3p2-----------0-----------0--------12-
B|--1-----3--------3-----------3--------------3-----3-----------0-----0-----12----
G|-----0-----0--------0-----2-----2--------------2-----------0-----------0--12----
D|-----------------------0--------------------------------------------------------
A|--3-----------------------------------------------------------------------------
E|--------------------------------------------------------0--------------------0--

Song lyrics here
E|--
B|--
G|--
D|--
A|--
E|--

Paste any tab in acousterr's tab maker and we'll play it !!!
Now supports capo and sound effects for vibrato/pull-off/hammer/bends/mutes etc !!! Checkout help section
tabs and chords, guitar tabs, music transcription, music technology, deep learning, music information retrieval, transcribe into tabs & chords, chordify, music renditions, songsterr, reverbnation, tabulature, bollywood chords, ultimate guitar, yousician, guitar lessons, acoustic guitar, electric guitar, guitar tuner, 911 tabs