Guitar Tabs for Nothing Else Matters

(/) Slide Up  (\) Slide Down  (h) Hammer On  (p) Pull Off  (b) Bend (r) Release (v) Vibrato (x) Muted

Tabs for Song : 
BPM : 200

Song lyrics here
E|--------------------------------------------------12-------12-------------------------------------------
B|--15b15b------------------------------------------------------15-12----12-------------------14-14-------
G|--14b14b12-12-11p12p11----11-------12-14-12-14b16----14b16----------15----15-14-12p14p12----14-14-13-12-
D|-----------------------14----12-14-------------------------------------------------------14-------------
A|--------------------------------------------------------------------------------------------------------
E|--------------------------------------------------------------------------------------------------------

Song lyrics here
E|--15-14----15-14-15/17-15-14p15p14-12----15-14----------------------------------12-------------------
B|--------12----------------------------12-------12----------15----------------12----15b17-15-12-15b17-
G|--------------------------------------------------12-14-12-14-12----12-14b16-------------------------
D|-----------------------------------------------------------------14----------------------------------
A|-----------------------------------------------------------------------------------------------------
E|-----------------------------------------------------------------------------------------------------

Paste any tab in acousterr's tab maker and we'll play it !!!
Now supports capo and sound effects for vibrato/pull-off/hammer/bends/mutes etc !!! Checkout help section
tabs and chords, guitar tabs, music transcription, music technology, deep learning, music information retrieval, transcribe into tabs & chords, chordify, music renditions, songsterr, reverbnation, tabulature, bollywood chords, ultimate guitar, yousician, guitar lessons, acoustic guitar, electric guitar, guitar tuner, 911 tabs