Guitar Tabs for Not Perfect

(/) Slide Up  (\) Slide Down  (h) Hammer On  (p) Pull Off  (b) Bend (r) Release (v) Vibrato (x) Muted

Tabs for Song : 


intro
E|------------------------------------------
B|------------------------------------------
G|----4------------------------------------2
D|---4-4----------5-----------2---------4--2
A|--2------------2-2---------4-4--------4--0
E|------3-2-0-2-3---3-2-0-2-5---5-3-2-0-2---

couplet
E|-----------------------------------------------------
B|-----12--------------------------------------------10
G|---11--11-----------12-------------9-----------11--9-
D|--9----------------9--9----------11-11---------11--11
A|---------10-9--9-10----10-9--9-12-----12-10-9--9---9-
E|-------------12------------12----------------12------

chorus
E|-----------------------------
B|--------------------------5-7
G|--4--4-6-7--7-9-7-6--6-4--4-6
D|--4--4-6-7--7-9-7-6--6-4--2-4
A|--2--2-4-5--5-7-5-4--4-2-----
E|-----------------------------

E|------------------------------------------
B|------------------------------------------
G|----4------------------------------------2
D|---4-4----------5-----------2---------4--2
A|--2------------2-2---------4-4--------4--0
E|------3-2-0-2-3---3-2-0-2-5---5-3-2-0-2---

couplet
E|-----------------------------------------------------
B|-----12--------------------------------------------10
G|---11--11-----------12-------------9-----------11--9-
D|--9----------------9--9----------11-11---------11--11
A|---------10-9--9-10----10-9--9-12-----12-10-9--9---9-
E|-------------12------------12----------------12------

chorus
E|-----------------------------
B|--------------------------5-7
G|--4--4-6-7--7-9-7-6--6-4--4-6
D|--4--4-6-7--7-9-7-6--6-4--2-4
A|--2--2-4-5--5-7-5-4--4-2-----
E|-----------------------------

solo

chorus
E|-----------------------------
B|--------------------------5-7
G|--4--4-6-7--7-9-7-6--6-4--4-6
D|--4--4-6-7--7-9-7-6--6-4--2-4
A|--2--2-4-5--5-7-5-4--4-2-----
E|-----------------------------

outro
E|------------------------------------------
B|------------------------------------------
G|----4------------------------------------2
D|---4-4----------5-----------2---------4--2
A|--2------------2-2---------4-4--------4--0
E|------3-2-0-2-3---3-2-0-2-5---5-3-2-0-2---






Paste any tab in acousterr's tab maker and we'll play it !!!
Now supports capo and sound effects for vibrato/pull-off/hammer/bends/mutes etc !!! Checkout help section
tabs and chords, guitar tabs, music transcription, music technology, deep learning, music information retrieval, transcribe into tabs & chords, chordify, music renditions, songsterr, reverbnation, tabulature, bollywood chords, ultimate guitar, yousician, guitar lessons, acoustic guitar, electric guitar, guitar tuner, 911 tabs