Nostalgia - Msb Competition Jan-feb 2005 - Guitar Tabs

Guitar I
    
                                                                                                                                                                                                                                                                                                                                                                                                                                                                                                                                                                                                                                                                                                                                                                                                                                                                                                                                                                                                                                                                                                                                                                                              
E|-------------------------|--------------------------|
B|-------------------------|--------------------------|
G|-------------------------|--------------------------|
D|--2--2-----2------2/5----|2--2-----2-----2--5-----7-|
A|--2--2-----2------2/5----|2--2-----2-----2--5-----7-|
E|--0--0-----0------0/3----|0--0-----0-----0--3-----5-|

    
                                                                                                                                                                                                                                                                                                                                                                                                                                                                                                                                                                                                                                                                                                                                                                                                                                                                                                                                                                                                                                                                                                                                                                                              
E|-------------------------|--------------------------|
B|-------------------------|--------------------------|
G|-------------------------|--------------------------|
D|--2--2-----2------2/5----|2--2-----2-----2--5-----7-|
A|--2--2-----2------2/5----|2--2-----2-----2--5-----7-|
E|--0--0-----0------0/3----|0--0-----0-----0--3-----5-|

    
                                                                                                                                                                                                                                                                                                                                                                                                                                                                                                                                                                                                                                                                                                                                                                                                                                                                                                                                                                                                                                                                                                                                                                                              
E|-------------------------|--------------------------|
B|-------------------------|--------------------------|
G|-------------------------|--------------------------|
D|--2--2-----2------2/5----|2--2-----2-----2--5-----7-|
A|--2--2-----2------2/5----|2--2-----2-----2--5-----7-|
E|--0--0-----0------0/3----|0--0-----0-----0--3-----5-|

    
                                                                                                                                                                                                                                                                                                                                                                                                                                                                                                                                                                                                                                                                                                                                                                                                                                                                                                                                                                                                                                                                                                                                                                                              
E|-------------------------|--------------------------|
B|-------------------------|--------------------------|
G|-------------------------|--------------------------|
D|--2--2-----2------2/5----|2--2-----2-----2--5-----7-|
A|--2--2-----2------2/5----|2--2-----2-----2--5-----7-|
E|--0--0-----0------0/3----|0--0-----0-----0--3-----5-|

    
                                                                                                                                                                                                                                                                                                                                                                                                                                                                                                                                                                                                 
E|-------------------------|
B|-------------------------|
G|-------------------------|
D|--2----------------------|
A|--2----------------------|
E|--0----------------------|

    
                                                                                                                                                                                                                                                                                                                                                                                                                                                                                                                                                                                                                                                                                                                                                                                                                                                                                                                                                                                                                                                                                                                                                                                              
E|-------------------------|-----------------------|
B|-------------------------|-----------------------|
G|-------------------------|-----------------------|
D|--7--7--7--5-----5--5--2-|-----------------------|
A|--7--7--7--5-----5--5--2-|-----------------------|
E|--5--5--5--3-----3--3--0-|---0--0--0--0--0--0--0-|

    
                                                                                                                                                                                                                                                                                                                                                                                                                                                                                                                                                                                                                                                                                                                                                                                                                                                                                                                                                                                                                                                                                                                                                                                              
E|-------------------------|--------------------------|
B|-------------------------|--------------------------|
G|-------------------------|--------------------------|
D|--7--7--7--5-----5--5--2-|------------5-----7-----5-|
A|--7--7--7--5-----5--5--2-|------------5-----7-----5-|
E|--5--5--5--3-----3--3--0-|---0--0--0--3-----5-----3-|

    
                                                                                                                                                                                                                                                                                                                                                                                                                                                                                                                                                                                                                                                                                                                                                                                                                                                                                                                                                                                                                                                                                                                                                                                              
E|-------------------------|-----------------------|
B|-------------------------|-----------------------|
G|-------------------------|-----------------------|
D|--7--7--7--5-----5--5--2-|-----------------------|
A|--7--7--7--5-----5--5--2-|-----------------------|
E|--5--5--5--3-----3--3--0-|---0--0--0--0--0--0--0-|

    
                                                                                                                                                                                                                                                                                                                                                                                                                                                                                                                                                                                                                                                                                                                                                                                                                                                                                                                                                                                                                                                                                                                                                                                              
E|-------------------------|--------------------------|
B|-------------------------|--------------------------|
G|-------------------------|--------------------------|
D|--7--7--7--5-----5--5--2-|------------5-----7-----5-|
A|--7--7--7--5-----5--5--2-|------------5-----7-----5-|
E|--5--5--5--3-----3--3--0-|---0--0--0--3-----5-----3-|

    
                                                                                                                                                                                                                                                                                                                                                                                                                                                                                                                                                                                                                                                                                                                                                                                                                                                                                                                                                                                                                                                                                                                                                                                              
E|-------------------------|-----------------------|
B|-------------------------|-----------------------|
G|-------------------------|-----------------------|
D|--7--7--7--5-----5--5--2-|-----------------------|
A|--7--7--7--5-----5--5--2-|-----------------------|
E|--5--5--5--3-----3--3--0-|---0--0--0--0--0--0--0-|

    
                                                                                                                                                                                                                                                                                                                                                                                                                                                                                                                                                                                                                                                                                                                                                                                                                                                                                                                                                                                                                                                                                                                                                                                              
E|-------------------------|--------------------------|
B|-------------------------|--------------------------|
G|-------------------------|--------------------------|
D|--7--7--7--5-----5--5--2-|------------5-----7-----5-|
A|--7--7--7--5-----5--5--2-|------------5-----7-----5-|
E|--5--5--5--3-----3--3--0-|---0--0--0--3-----5-----3-|

    
                                                                                                                                                                                                                                                                                                                                                                                                                                                                                                                                                                                                                                                                                                                                                                                                                                                                                                                                                                                                                                                                                                                                                                                              
E|-------------------------|-----------------------|
B|-------------------------|-----------------------|
G|-------------------------|-----------------------|
D|--7--7--7--5-----5--5--2-|-----------------------|
A|--7--7--7--5-----5--5--2-|-----------------------|
E|--5--5--5--3-----3--3--0-|---0--0--0--0--0--0--0-|

    
                                                                                                                                                                                                                                                                                                                                                                                                                                                                                                                                                                                                                                                                                                                                                                                                                                                                                                                                                                                                                                                                                                                                                                                              
E|-------------------------|--------------------------|
B|-------------------------|--------------------------|
G|-------------------------|--------------------------|
D|--7--7--7--5-----5--5--2-|------------5-----7-----5-|
A|--7--7--7--5-----5--5--2-|------------5-----7-----5-|
E|--5--5--5--3-----3--3--0-|---0--0--0--3-----5-----3-|

    
                                                                                                                                                                                                                                                                                                                                                                                                                                                                                                                                                                                                                                                                                                                                                                                                                                                                                                                                                                                                                                                                                                                                                                                              
E|----------------------------------|--------------------------------|
B|----------------------------------|--------------------------------|
G|----------------------------------|------------9-------------------|
D|--------------------5-----7-----5-|------------------5-----7-----5-|
A|--5--7--7--7--7-------------------|5--7--7--7--7-------------------|
E|----------------------------------|--------------------------------|

    
                                                                                                                                                                                                                                                                                                                                                                                                                                                                                                                                                                                                                                                                                                                                                                                                                                                                                                                                                                                                                                                                                                                                                                                              
E|-------------------------------|--------------------------------|
B|-------------------------------|--------------------------------|
G|-------------------------------|--------------------------------|
D|--8--7--5--7--5-----5----------|------------------5-----7-----5-|
A|-----------------7-----7-----5-|5--7--7--7--7-------------------|
E|-------------------------------|--------------------------------|

    
                                                                                                                                                                                                                                                                                                                                                                                                                                                                                                                                                                                                                                                                                                                                                                                                                                                                                                                                                                                                                                                                                                                                                                                              
E|----------------------------------|-----------------------------|
B|----------------------------------|-----------------------------|
G|--------------9-------------------|-----------------------------|
D|--------------------5-----7-----5-|8--7--5--7--5-----5----------|
A|--5--7--7--7--7-------------------|---------------7-----7-----5-|
E|----------------------------------|-----------------------------|

    
                                                                                                                                                                                                                                                                                                                                                                                                                                                                                                                                                                                                                                                                                                                                                                                                                                                                                                                                                                                                                                                                                                                                                                                              
E|-------------------------|-----------------------|
B|-------------------------|-----------------------|
G|-------------------------|-----------------------|
D|--7--7--7--5-----5--5--2-|-----------------------|
A|--7--7--7--5-----5--5--2-|-----------------------|
E|--5--5--5--3-----3--3--0-|---0--0--0--0--0--0--0-|

    
                                                                                                                                                                                                                                                                                                                                                                                                                                                                                                                                                                                                                                                                                                                                                                                                                                                                                                                                                                                                                                                                                                                                                                                              
E|-------------------------|--------------------------|
B|-------------------------|--------------------------|
G|-------------------------|--------------------------|
D|--7--7--7--5-----5--5--2-|------------5-----7-----5-|
A|--7--7--7--5-----5--5--2-|------------5-----7-----5-|
E|--5--5--5--3-----3--3--0-|---0--0--0--3-----5-----3-|

    
                                                                                                                                                                                                                                                                                                                                                                                                                                                                                                                                                                                                                                                                                                                                                                                                                                                                                                                                                                                                                                                                                                                                                                                              
E|-------------------------|-----------------------|
B|-------------------------|-----------------------|
G|-------------------------|-----------------------|
D|--7--7--7--5-----5--5--2-|-----------------------|
A|--7--7--7--5-----5--5--2-|-----------------------|
E|--5--5--5--3-----3--3--0-|---0--0--0--0--0--0--0-|

    
                                                                                                                                                                                                                                                                                                                                                                                                                                                                                                                                                                                                                                                                                                                                                                                                                                                                                                                                                                                                                                                                                                                                                                                              
E|-------------------------|--------------------------|
B|-------------------------|--------------------------|
G|-------------------------|--------------------------|
D|--7--7--7--5-----5--5--2-|------------5-----7-----5-|
A|--7--7--7--5-----5--5--2-|------------5-----7-----5-|
E|--5--5--5--3-----3--3--0-|---0--0--0--3-----5-----3-|

    
                                                                                                                                                                                                                                                                                                                                                                                                                                                                                                                                                                                                                                                                                                                                                                                                                                                                                                                                                                                                                                                                                                                                                                                              
E|-------------------------|-----------------------|
B|-------------------------|-----------------------|
G|-------------------------|-----------------------|
D|--7--7--7--5-----5--5--2-|-----------------------|
A|--7--7--7--5-----5--5--2-|-----------------------|
E|--5--5--5--3-----3--3--0-|---0--0--0--0--0--0--0-|

    
                                                                                                                                                                                                                                                                                                                                                                                                                                                                                                                                                                                                                                                                                                                                                                                                                                                                                                                                                                                                                                                                                                                                                                                              
E|-------------------------|--------------------------|
B|-------------------------|--------------------------|
G|-------------------------|--------------------------|
D|--7--7--7--5-----5--5--2-|------------5-----7-----5-|
A|--7--7--7--5-----5--5--2-|------------5-----7-----5-|
E|--5--5--5--3-----3--3--0-|---0--0--0--3-----5-----3-|

    
                                                                                                                                                                                                                                                                                                                                                                                                                                                                                                                                                                                                                                                                                                                                                                                                                                                                                                                                                                                                                                                                                                                                                                                              
E|-------------------------|---------0-------------|
B|-------------------------|------------0-----0----|
G|-------------------------|---------------0-----0-|
D|-------------------------|------2----------------|
A|--2--2--2--2--2--2--2--2-|---2-------------------|
E|--0--0--0--0--0--0--0--0-|0----------------------|

    
                                                                                                                                                                                                                                                                                                                                                                                                                                                                                                                                                                                                                                                                                                                                                                                                                                                                                                                                                                                                                                                                                                                                                                                              
E|-----------0-------------|x----------------------|
B|--------------0-----0----|x----------------------|
G|-----------------0-----0-|x-----5-----------4----|
D|--------2----------------|x--5-----5-----4-----4-|
A|-----2-------------------|3-----------2----------|
E|--0----------------------|-----------------------|

    
                                                                                                                                                                                                                                                                                                                                                                                                                                                                                                                                                                                                                                                                                                                                                                                                                                                                                                                                                                                                                                                                                                                                                                                              
E|-----------0-------------|---------0-------------|
B|--------------0-----0----|------------0-----0----|
G|-----------------0-----0-|---------------0-----0-|
D|--------2----------------|------2----------------|
A|-----2-------------------|---2-------------------|
E|--0----------------------|0----------------------|

    
                                                                                                                                                                                                                                                                                                                                                                                                                                                                                                                                                                                                                                                                                                                                                                                                                                                                                                                                                                                                                                                                                                                                                                                              
E|--x----------------------|---------0-------------|
B|--x----------------------|------------0-----0----|
G|--x-----5-----------4----|---------------0-----0-|
D|--x--5-----5-----4-----4-|------2----------------|
A|--3-----------2----------|---2-------------------|
E|-------------------------|0----------------------|

    
                                                                                                                                                                                                                                                                                                                                                                                                                                                                                                                                                                                                                                                                                                                                                                                                                                                                                                                                                                                                                                                                                                                                                                                              
E|-----------0-------------|x----------------------|
B|--------------0-----0----|x----------------------|
G|-----------------0-----0-|x-----5-----------4----|
D|--------2----------------|x--5-----5-----4-----4-|
A|-----2-------------------|3-----------2----------|
E|--0----------------------|-----------------------|

    
                                                                                                                                                                                                                                                                                                                                                                                                                                                                                                                                                                                                                                                                                                                                                                                                                                                                                                                                                                                                                                                                                                                                                                                              
E|-----------0-------------|---------0-------------|
B|--------------0-----0----|------------0-----0----|
G|-----------------0-----0-|---------------0-----0-|
D|--------2----------------|------2----------------|
A|-----2-------------------|---2-------------------|
E|--0----------------------|0----------------------|
tabs and chords, guitar tabs, music transcription, music technology, deep learning, music information retrieval, transcribe into tabs & chords, chordify, music renditions, songsterr, reverbnation, tabulature, bollywood chords, ultimate guitar, yousician, guitar lessons, acoustic guitar, electric guitar, guitar tuner, 911 tabs