Alliance Of Spellcasters - Msb Competition Jan-feb 2005 - Guitar Tabs

Guitar 1
    
                                                                                                                                                                                                                                                                                                                                                                                                                                                                                                                                                                                                 
E|-------------------------|
B|-------------------------|
G|--2----------------------|
D|--2----------------------|
A|--0----------------------|
E|-------------------------|

    
                                                                                                                                                                                                                                                                                                                                                                                                                                                                                                                                                                                                                                                                                                                                                                                                                                                                                                                                                                                                                                                                                                                                                                                              
E|-------------------------|-----------------------|
B|-------------------------|-----------------------|
G|-------------------------|10----12---------------|
D|--5----------------------|10----12---------------|
A|--5----------------------|8-----10---------------|
E|--3----------------------|-----------------------|

    
                                                                                                                                                                                                                                                                                                                                                                                                                                                                                                                                                                                                 
E|-------------------------|
B|-------------------------|
G|--2----------------------|
D|--2----------------------|
A|--0----------------------|
E|-------------------------|

    
                                                                                                                                                                                                                                                                                                                                                                                                                                                                                                                                                                                                                                                                                                                                                                                                                                                                                                                                                                                                                                                                                                                                                                                              
E|-------------------------|-----------------------|
B|-------------------------|-----------------------|
G|-------------------------|10----12---------------|
D|--5----------------------|10----12---------------|
A|--5----------------------|8-----10---------------|
E|--3----------------------|-----------------------|

    
                                                                                                                                                                                                                                                                                                                                                                                                                                                                                                                                                                                                                                                                                                                                                                                                                                                                                                                                                                                                                                                                                                                                                                                              
E|----------------------------------------|--------------------------------|
B|----------------------------------------|--------------------------------|
G|--9--------------10-------9-------------|7--4--------------7--------5--4-|
D|--7--7--7--7--7--7--7--7--7--7--7--7--7-|5--5--5--5--5--5--7--5--5--5--5-|
A|----------------------------------------|--------------------------------|
E|----------------------------------------|--------------------------------|

    
                                                                                                                                                                                                                                                                                                                                                                                                                                                                                                                                                                                                                                                                                                                                                                                                                                                                                                                                                                                                                                                                                                                                                                                              
E|----------------------------------|-----------------------------|
B|----------------------------------|-----------------------------|
G|--9--------------9--------12-10-9-|7--------------7--9--7--5--4-|
D|--10-10-10-10-10-10-10-10-10-10-10|5--5--5--5--5--5--10-9--7--5-|
A|----------------------------------|-----------------------------|
E|----------------------------------|-----------------------------|

    
                                                                                                                                                                                                                                                                                                                                                                                                                                                                                                                                                                                                                                                                                                                                                                                                                                                                                                                                                                                                                                                                                                                                                                                              
E|----------------------------------------|--------------------------------|
B|----------------------------------------|--------------------------------|
G|--9--------------10-------9-------------|7--4--------------7--------5--4-|
D|--7--7--7--7--7--7--7--7--7--7--7--7--7-|5--5--5--5--5--5--7--5--5--5--5-|
A|----------------------------------------|--------------------------------|
E|----------------------------------------|--------------------------------|

    
                                                                                                                                                                                                                                                                                                                                                                                                                                                                                                                                                                                                                                                                                                                                                                                                                                                                                                                                                                                                                                                                                                                                                                                              
E|----------------------------------|-----------------------------|
B|----------------------------------|-----------------------------|
G|--9--------------9--------12-10-9-|7--------------7--9--7--5--4-|
D|--10-10-10-10-10-10-10-10-10-10-10|5--5--5--5--5--5--10-9--7--5-|
A|----------------------------------|-----------------------------|
E|----------------------------------|-----------------------------|

    
                                                                                                                                                                                                                                                                                                                                                                                                                                                                                                                                                                                                                                                                                                                                                                                                                                                                                                                                                                                                                                                                                                                                                                                              
E|----------------------------------------|--------------------------------|
B|----------------------------------------|--------------------------------|
G|--9--------------10-------9-------------|7--4--------------7--------5--4-|
D|--7--7--7--7--7--7--7--7--7--7--7--7--7-|5--5--5--5--5--5--7--5--5--5--5-|
A|----------------------------------------|--------------------------------|
E|----------------------------------------|--------------------------------|

    
                                                                                                                                                                                                                                                                                                                                                                                                                                                                                                                                                                                                                                                                                                                                                                                                                                                                                                                                                                                                                                                                                                                                                                                              
E|----------------------------------|-----------------------------|
B|----------------------------------|-----------------------------|
G|--9--------------9--------12-10-9-|7--------------7--9--7--5--4-|
D|--10-10-10-10-10-10-10-10-10-10-10|5--5--5--5--5--5--10-9--7--5-|
A|----------------------------------|-----------------------------|
E|----------------------------------|-----------------------------|

    
                                                                                                                                                                                                                                                                                                                                                                                                                                                                                                                                                                                                                                                                                                                                                                                                                                                                                                                                                                                                                                                                                                                                                                                              
E|----------------------------------------|--------------------------------|
B|----------------------------------------|--------------------------------|
G|--9--------------10-------9-------------|7--4--------------7--------5--4-|
D|--7--7--7--7--7--7--7--7--7--7--7--7--7-|5--5--5--5--5--5--7--5--5--5--5-|
A|----------------------------------------|--------------------------------|
E|----------------------------------------|--------------------------------|

    
                                                                                                                                                                                                                                                                                                                                                                                                                                                                                                                                                                                                                                                                                                                                                                                                                                                                                                                                                                                                                                                                                                                                                                                              
E|----------------------------------|-----------------------------|
B|----------------------------------|-----------------------------|
G|--9--------------9--------12-10-9-|7--------------7--9--7--5--4-|
D|--10-10-10-10-10-10-10-10-10-10-10|5--5--5--5--5--5--10-9--7--5-|
A|----------------------------------|-----------------------------|
E|----------------------------------|-----------------------------|

    
                                                                                                                                                                                                                                                                                                                                                                                                                                                                                                                                                                                                                                                                                                                                                                                                                                                                                                                                                                                                                                                                                                                                                                                              
E|----------------------------------|-----------------------------|
B|----------------------------------|-----------------------------|
G|--5--------------5-----4----------|7--------------7-----9--7--5-|
D|--7--7--7--7--7--7-----6-----6--6-|9--9--9--9--9--9-----10-9--7-|
A|----------------------------------|-----------------------------|
E|----------------------------------|-----------------------------|

    
                                                                                                                                                                                                                                                                                                                                                                                                                                                                                                                                                                                                                                                                                                                                                                                                                                                                                                                                                                                                                                                                                                                                                                                              
E|----------------------------------|-----------------------------|
B|----------------------------------|-----------------------------|
G|--5--------------5-----4----------|5--7-----5--10----9--7-------|
D|--7--7--7--7--7--7-----6-----6--6-|7--9-----7--12----10-9-------|
A|----------------------------------|-----------------------------|
E|----------------------------------|-----------------------------|

    
                                                                                                                                                                                                                                                                                                                                                                                                                                                                                                                                                                                                                                                                                                                                                                                                                                                                                                                                                                                                                                                                                                                                                                                              
E|----------------------------------|-----------------------------|
B|----------------------------------|-----------------------------|
G|--5--------------5-----4----------|7--------------7-----9--7--5-|
D|--7--7--7--7--7--7-----6-----6--6-|9--9--9--9--9--9-----10-9--7-|
A|----------------------------------|-----------------------------|
E|----------------------------------|-----------------------------|

    
                                                                                                                                                                                                                                                                                                                                                                                                                                                                                                                                                                                                                                                                                                                                                                                                                                                                                                                                                                                                                                                                                                                                                                                              
E|----------------------------------|-----------------------|
B|----------------------------------|-----------------------|
G|--5--------------5-----4----------|10----9-----7-----5----|
D|--7--7--7--7--7--7-----6-----6--6-|12----10----9-----7----|
A|----------------------------------|-----------------------|
E|----------------------------------|-----------------------|

    
                                                                                                                                                                                                                                                                                                                                                                                                                                                                                                                                                                                                                                                                                                                                                                                                                                                                                                                                                                                                                                                                                                                                                                                              
E|----------------------------------------|--------------------------------|
B|----------------------------------------|--------------------------------|
G|--9--------------10-------9-------------|7--4--------------7--------5--4-|
D|--7--7--7--7--7--7--7--7--7--7--7--7--7-|5--5--5--5--5--5--7--5--5--5--5-|
A|----------------------------------------|--------------------------------|
E|----------------------------------------|--------------------------------|

    
                                                                                                                                                                                                                                                                                                                                                                                                                                                                                                                                                                                                                                                                                                                                                                                                                                                                                                                                                                                                                                                                                                                                                                                              
E|----------------------------------|-----------------------------|
B|----------------------------------|-----------------------------|
G|--9--------------9--------12-10-9-|7--------------7--9--7--5--4-|
D|--10-10-10-10-10-10-10-10-10-10-10|5--5--5--5--5--5--10-9--7--5-|
A|----------------------------------|-----------------------------|
E|----------------------------------|-----------------------------|

    
                                                                                                                                                                                                                                                                                                                                                                                                                                                                                                                                                                                                                                                                                                                                                                                                                                                                                                                                                                                                                                                                                                                                                                                              
E|----------------------------------------|--------------------------------|
B|----------------------------------------|--------------------------------|
G|--9--------------10-------9-------------|7--4--------------7--------5--4-|
D|--7--7--7--7--7--7--7--7--7--7--7--7--7-|5--5--5--5--5--5--7--5--5--5--5-|
A|----------------------------------------|--------------------------------|
E|----------------------------------------|--------------------------------|

    
                                                                                                                                                                                                                                                                                                                                                                                                                                                                                                                                                                                                                                                                                                                                                                                                                                                                                                                                                                                                                                                                                                                                                                                              
E|----------------------------------|-----------------------------|
B|----------------------------------|-----------------------------|
G|--9--------------9--------12-10-9-|7--------------7--9--7--5--4-|
D|--10-10-10-10-10-10-10-10-10-10-10|5--5--5--5--5--5--10-9--7--5-|
A|----------------------------------|-----------------------------|
E|----------------------------------|-----------------------------|

    
                                                                                                                                                                                                                                                                                                                                                                                                                                                                                                                                                                                                                                                                                                                                                                                                                                                                                                                                                                                                                                                                                                                                                                                              
E|----------------------------------------|--------------------------------|
B|----------------------------------------|--------------------------------|
G|--9--------------10-------9-------------|7--4--------------7--------5--4-|
D|--7--7--7--7--7--7--7--7--7--7--7--7--7-|5--5--5--5--5--5--7--5--5--5--5-|
A|----------------------------------------|--------------------------------|
E|----------------------------------------|--------------------------------|

    
                                                                                                                                                                                                                                                                                                                                                                                                                                                                                                                                                                                                                                                                                                                                                                                                                                                                                                                                                                                                                                                                                                                                                                                              
E|----------------------------------|-----------------------------|
B|----------------------------------|-----------------------------|
G|--9--------------9--------12-10-9-|7--------------7--9--7--5--4-|
D|--10-10-10-10-10-10-10-10-10-10-10|5--5--5--5--5--5--10-9--7--5-|
A|----------------------------------|-----------------------------|
E|----------------------------------|-----------------------------|

    
                                                                                                                                                                                                                                                                                                                                                                                                                                                                                                                                                                                                                                                                                                                                                                                                                                                                                                                                                                                                                                                                                                                                                                                              
E|----------------------------------------|--------------------------------|
B|----------------------------------------|--------------------------------|
G|--9--------------10-------9-------------|7--4--------------7--------5--4-|
D|--7--7--7--7--7--7--7--7--7--7--7--7--7-|5--5--5--5--5--5--7--5--5--5--5-|
A|----------------------------------------|--------------------------------|
E|----------------------------------------|--------------------------------|

    
                                                                                                                                                                                                                                                                                                                                                                                                                                                                                                                                                                                                                                                                                                                                                                                                                                                                                                                                                                                                                                                                                                                                                                                              
E|----------------------------------|-----------------------------|
B|----------------------------------|-----------------------------|
G|--9--------------9--------12-10-9-|7--------------7--9--7--5--4-|
D|--10-10-10-10-10-10-10-10-10-10-10|5--5--5--5--5--5--10-9--7--5-|
A|----------------------------------|-----------------------------|
E|----------------------------------|-----------------------------|

    
                                                                                                                                                                                                                                                                                                                                                                                                                                                                                                                                                                                                                                                                                                                                                                                                                                                                                                                                                                                                                                                                                                                                                                                              
E|----------------------------------|-----------------------------|
B|----------------------------------|-----------------------------|
G|--5--------------5-----4----------|7--------------7-----9--7--5-|
D|--7--7--7--7--7--7-----6-----6--6-|9--9--9--9--9--9-----10-9--7-|
A|----------------------------------|-----------------------------|
E|----------------------------------|-----------------------------|

    
                                                                                                                                                                                                                                                                                                                                                                                                                                                                                                                                                                                                                                                                                                                                                                                                                                                                                                                                                                                                                                                                                                                                                                                              
E|----------------------------------|-----------------------------|
B|----------------------------------|-----------------------------|
G|--5--------------5-----4----------|5--7-----5--10----9--7-------|
D|--7--7--7--7--7--7-----6-----6--6-|7--9-----7--12----10-9-------|
A|----------------------------------|-----------------------------|
E|----------------------------------|-----------------------------|
tabs and chords, guitar tabs, music transcription, music technology, deep learning, music information retrieval, transcribe into tabs & chords, chordify, music renditions, songsterr, reverbnation, tabulature, bollywood chords, ultimate guitar, yousician, guitar lessons, acoustic guitar, electric guitar, guitar tuner, 911 tabs