Guitar Tabs for Nostalgia

(/) Slide Up  (\) Slide Down  (h) Hammer On  (p) Pull Off  (b) Bend (r) Release (v) Vibrato (x) Muted

Tabs for Song : 

Song lyrics here
E|----------------------------------------------------------------------------------------------------------------------------------v
B|--------------11v-------------9/11----9v----------------------------------9v----------9--11-11-9--9-----------------------------
G|--------10v---------10--------------------8h10p8--------------------------------10v---------------------------------------------
D|-----8--------------------8-----------------------8------8h10----------8--------------------------------11v-------9h11----------
A|--9--------------------9--------------------------------------------9-----------------------------------------11----------------
E|--------------------------------------------------------------------------------------------------------------------------------

Song lyrics here
E|--------------------------------------------------------------------------------------------------------
B|--------------------------------------------------------------------------9-----------------------------
G|---------------8/10-8-----------------10-------------------------------8------8/10----------------------
D|------8h11-11----------11v---8--10p8-----8v-----8/11-----------8h11-11----------------11v---------------
A|--11-------------------------------------------------------11-------------------------------------------
E|--------------------------------------------------------------------------------------------------------

E|--------------------------------------------------------------------------------------------------------------------------------------
B|-----------------------------------------------------------------------11p9-----------------------------------------------------------
G|--------------------------------------8---------------------------------------8/10----------------------------------------8-----------
D|------8h11-11/13-13/15-11----8--10p8-----8v----11\8------------8h11-11-------------11-11v----------8h11-11v----------8h11----11-11v---
A|--11-------------------------------------------------------11----------------------------------11----------------11-------------------
E|--------------------------------------------------------------------------------------------------------------------------------------

E|--------------------------------------------------
B|--------------------------------------------------
G|---------------8/10-------8-----------------------
D|---------8h11----------------11-11v---------11v---
A|--11v---------------------------------------------
E|--------------------------------------------------

Paste any tab in acousterr's tab maker and we'll play it !!!
Now supports capo and sound effects for vibrato/pull-off/hammer/bends/mutes etc !!! Checkout help section
tabs and chords, guitar tabs, music transcription, music technology, deep learning, music information retrieval, transcribe into tabs & chords, chordify, music renditions, songsterr, reverbnation, tabulature, bollywood chords, ultimate guitar, yousician, guitar lessons, acoustic guitar, electric guitar, guitar tuner, 911 tabs