Guitar Tabs for Nirvana - Come As You Are

Nirvana - Come As You Are

Tune -> 1 Step Down

Intro 

D|-----------------------------------------------
A|-----------------------------------------------
F|-----------------------------------------------  4x
C|----------------------------------------------- 
G|--------------0-----0--------------2--------2--
D|--0--0--1--2-----2-----2--2--1--0-----0--0-----

1st Verse

***The verse uses the intro pattern***

Come as you are, as you were
As I want you to be
As a friend, as a friend
As a known enemy

Take your time, hurry up
Choice is yours, don't be late
Take a rest, as a friend


Chorus

               F#m7(11)/E   A9
As an old memory,         yeah       
D|--------------------------0--
A|--------------------------0--
F|-----------------2--------2--
C|-----------------4--------2--
G|-----------------4--------0--
D|-----------------0-----------

    F#m7(11)/E  A9
Memory,         yeah
D|--------------0--
A|--------------0--
F|-----2--------2--
C|-----4--------2--
G|-----4--------0--
D|-----0-----------
    F#m7(11)/E  A9
Memory,         yeah
D|--------------0--
A|--------------0--
F|-----2--------2--
C|-----4--------2--
G|-----4--------0--
D|-----0-----------
    F#m7(11)/E  A9
Memory,         yeah
D|--------------0--
A|--------------0--
F|-----2--------2--
C|-----4--------2--
G|-----4--------0--
D|-----0-----------

2nd Verse

***The 2nd Verse also uses the intro pattern***

Come doused in mud, soaked in bleach
As I want you to be
As a trend, as a friend

Chorus

               F#m7(11)/E   A9
As an old memory,         yeah       
D|--------------------------0--
A|--------------------------0--
F|-----------------2--------2--
C|-----------------4--------2--
G|-----------------4--------0--
D|-----------------0-----------

    F#m7(11)/E  A9
Memory,         yeah
D|--------------0--
A|--------------0--
F|-----2--------2--
C|-----4--------2--
G|-----4--------0--
D|-----0-----------
    F#m7(11)/E  A9
Memory,         yeah
D|--------------0--
A|--------------0--
F|-----2--------2--
C|-----4--------2--
G|-----4--------0--
D|-----0-----------
    F#m7(11)/E  A9
Memory,         yeah
D|--------------0--
A|--------------0--
F|-----2--------2--
C|-----4--------2--
G|-----4--------0--
D|-----0-----------


Tension

   B9        D           B9          D
    And I swear that I don't have a gun
D|--2--------2-----------2-----------2--
A|--2--------3-----------2-----------3--
F|--4--------2-----------4-----------2--
C|--4--------0-----------4-----------0--
G|--2--------------------2--------------
D|--------------------------------------

       B9           D
No, I don't have a gun
D|-----2-----------2--
A|-----2-----------3--
F|-----4-----------2--
C|-----4-----------0--
G|-----2--------------
D|--------------------

       B9          D
No, I don't have a gun
D|-----2-----------2--
A|-----2-----------3--
F|-----4-----------2--
C|-----4-----------0--
G|-----2--------------
D|--------------------

Bridge 

D|-----------------------------------------------
A|-----------------------------------------------
F|-----------------------------------------------  2x
C|----------------------------------------------- 
G|--------------0-----0--------------2--------2--
D|--0--0--1--2-----2-----2--2--1--0-----0--0-----


Guitar Solo Base

D|-----------------------------------------------
A|-----------------------------------------------
F|-----------------------------------------------  8x
C|----------------------------------------------- 
G|--------------0-----0--------------2--------2--
D|--0--0--1--2-----2-----2--2--1--0-----0--0-----

Chorus

   F#m7(11)/E   A9
  Memory,       yeah       
D|--------------0--
A|--------------0--
F|-----2--------2--
C|-----4--------2--
G|-----4--------0--
D|-----0-----------

    F#m7(11)/E  A9
Memory,         yeah
D|--------------0--
A|--------------0--
F|-----2--------2--
C|-----4--------2--
G|-----4--------0--
D|-----0-----------
    F#m7(11)/E  A9
Memory,         yeah
D|--------------0--
A|--------------0--
F|-----2--------2--
C|-----4--------2--
G|-----4--------0--
D|-----0-----------
    F#m7(11)/E  A9
Memory,         yeah
D|--------------0--
A|--------------0--
F|-----2--------2--
C|-----4--------2--
G|-----4--------0--
D|-----0-----------

2nd Tension

   B9        D           B9          D
    And I swear that I don't have a gun
D|--2--------2-----------2-----------2--
A|--2--------3-----------2-----------3--
F|--4--------2-----------4-----------2--
C|--4--------0-----------4-----------0--
G|--2--------------------2--------------
D|--------------------------------------

       B9           D
No, I don't have a gun
D|-----2-----------2--
A|-----2-----------3--
F|-----4-----------2--
C|-----4-----------0--
G|-----2--------------
D|--------------------

       B9          D
No, I don't have a gun
D|-----2-----------2--
A|-----2-----------3--
F|-----4-----------2--
C|-----4-----------0--
G|-----2--------------
D|--------------------

       B9           D
No, I don't have a gun
D|-----2-----------2--
A|-----2-----------3--
F|-----4-----------2--
C|-----4-----------0--
G|-----2--------------
D|--------------------

       B9          D
No, I don't have a gun
D|-----2-----------2--
A|-----2-----------3--
F|-----4-----------2--
C|-----4-----------0--
G|-----2--------------
D|--------------------


Outro

  Memory, yeah
D|-----------------------------------------------
A|-----------------------------------------------
F|-----------------------------------------------  4x
C|----------------------------------------------- 
G|--------------0-----0--------------2--------2--
D|--0--0--1--2-----2-----2--2--1--0-----0--0-----
tabs and chords, guitar tabs, music transcription, music technology, deep learning, music information retrieval, transcribe into tabs & chords, chordify, music renditions, songsterr, reverbnation, tabulature, bollywood chords, ultimate guitar, yousician, guitar lessons, acoustic guitar, electric guitar, guitar tuner, 911 tabs