Bass Tabs for Nirvana - Come As You Are

Nirvana - Come As You Are

Verse & Guitar Solo
G|-----------------------------------------------
D|--------------5-----5-------------7--------7---
A|--5--5--6--7-----7----7--7--6--5-----5--5------
E|-----------------------------------------------

Memory Part
G|--------------------------------------------------
D|--------------------------------------------------
A|--------------------------------------------------
E|--0--0-----0--0--0-----3--3--3--3-----3--3--3--3--

Chorus
G|-----------------------------------------------------
D|-----------------------------------------------------  (3x)     (5x last chorus) 
A|-----------------------------------------------------
E|--5--5--5--5--5--5--5--7--8--8--8--8-----8--8--7--0--

G|-----------------------------------------
D|-----------------------------------------
A|-----------------------------------------
E|--5--5--5--5--5--5--5--7--8--8--8--8--8--

End
G|-----------
D|-----------
A|--5--6--7--
E|-----------






tabs and chords, guitar tabs, music contests, music covers, songsterr, reverbnation, renditions, tabulature, bollywood chords, ultimate guitar, yousician, guitar lessons, torrins, fender, gibson, acoustic guitar, electric guitar, youtube covers, gootar, guitar tuner, A-Z tabs, 911 tabs