Guitar Tabs for Nicky Ricky Dicky And Dawn Theme Song

(/) Slide Up  (\) Slide Down  (h) Hammer On  (p) Pull Off  (b) Bend (r) Release (v) Vibrato (x) Muted

Tabs & Chords
BPM : 93.0
Check Track 2 for Chord Positions 

       D#                                           F        A#                            
E|--------------3-----------------3--------20-20----------------------------------------6--
B|-----------------4--4-----------------------------6--------3--------3--3-----3-----------
G|--------5--0-----------5--3--0-----------------------------------5--------------5--------
D|-----------------------------------------------------------------------------------------
A|-----6-----------------------------------------------------------------------------------
E|-----------------------------------------------------------------------------------------

Guitar Tabs for Nicky Ricky Dicky And Dawn Theme Song






       D#                                           F        A#                            
E|-----6--------------------------------------------1--------1-----------------------------
B|-----8--------------------------------------------1--------3-----------------------------
G|-----8--------------------------------------------2--------3-----------------------------
D|-----8--------------------------------------------3--------3-----------------------------
A|-----6--------------------------------------------3--------1-----------------------------
E|--------------------------------------------------1--------------------------------------

tabs and chords, guitar tabs, music transcription, music technology, deep learning, music information retrieval, transcribe into tabs & chords, chordify, music renditions, songsterr, reverbnation, tabulature, bollywood chords, ultimate guitar, yousician, guitar lessons, acoustic guitar, electric guitar, guitar tuner, 911 tabs