Guitar Tabs for Next To Me

(/) Slide Up  (\) Slide Down  (h) Hammer On  (p) Pull Off  (b) Bend (r) Release (v) Vibrato (x) Muted

Tabs for Song : 

Song lyrics here
E|-----------------------------------------------------------------------------------------------------------
B|-----------------------------------------------------------------------------------------------------------
G|-----------------------------------------------------------------------------------------------------------
D|--------------------------------------------------7-----------7--------------------------------------------
A|--0--5--7--5--7--5--7--5--7--5--7-----0--5--7--5-----5--7--5-----5--7-----0--5--7--5--7--5--7--5--7--5--7--
E|-----------------------------------------------------------------------------------------------------------

Song lyrics here
E|-----------------------------------------------------------------------------------------------------
B|-----------------------------------------------------------------------------------------------------
G|-----------------------------------------------------------------------------------------------------
D|-----------------7--5-----------------------------7--5-----------------------------7--5--------------
A|--0-----7--9--9--------5--7--------0-----7--9--9--------5--3--------0-----7--9--9--------5--7--------
E|-----9-----------------------12-------9-----------------------8--------9-----------------------12----

E|-----------------------------------------
B|-----------------------------------------
G|-----------------------------------------
D|-----------------------------------------
A|--0--4--7--12-0--4--7--12-0--4--7--12-12-
E|-----------------------------------------

Paste any tab in acousterr's tab maker and we'll play it !!!
Now supports capo and sound effects for vibrato/pull-off/hammer/bends/mutes etc !!! Checkout help section
tabs and chords, guitar tabs, music transcription, music technology, deep learning, music information retrieval, transcribe into tabs & chords, chordify, music renditions, songsterr, reverbnation, tabulature, bollywood chords, ultimate guitar, yousician, guitar lessons, acoustic guitar, electric guitar, guitar tuner, 911 tabs