Guitar Tabs for New York's Not My Home - Jim Croce Tabs

(/) Slide Up  (\) Slide Down  (h) Hammer On  (p) Pull Off  (b) Bend (r) Release (v) Vibrato

Tabs for Song : 

Song lyrics here
E|--------0--------0--------------0--------0--------------0--------0--------------0--------0--------
B|--------0--------0--------------0--------0--------------0--------0--------------0--------0--------
G|-----6--------6--------6-----6--------6--------6-----6--------6--------6-----6--------6--------6--
D|--7--------7--------7-----6--------6--------6-----5--------5--------5-----4-----------------------
A|-----------------------------------------------------------------------------------4--------3-----
E|--------------------------------------------------------------------------------------------------

E|--------0--------0--------------0--------0--------------0--------0--------------------------------
B|--------3--------3--------------0--------0--------------2--------2--------------------------------
G|-----2--------2--------------1--------1--------1-----1--------1--------1--------------------------
D|-----------4-----------------------0-----------------------2--------2-----------------------------
A|--2-----------------2-----------------------------0-----------------------------0---2h-4p2--0-----
E|-----------------------0--1-----------------1-----------------------------0--2-----------------2--



tabs and chords, guitar tabs, music contests, music covers, songsterr, reverbnation, renditions, tabulature, bollywood chords, ultimate guitar, yousician, guitar lessons, torrins, fender, gibson, acoustic guitar, electric guitar, youtube covers, gootar, guitar tuner, A-Z tabs, 911 tabs