Guitar Tabs for New Song

(/) Slide Up  (\) Slide Down  (h) Hammer On  (p) Pull Off  (b) Bend (r) Release (v) Vibrato (x) Muted

Tabs for Song : 
BPM : 200

Song lyrics here 
E|--
B|--
G|--
D|--
A|--
E|--

E|--------------------------------------------8-----------------------9--11-9--8--------------------------
B|--5-----------9--10-9--7-----10-7-----7--10----10-7-----------7--9-----------------12-14-16-11-12-------
G|-----6--8--9-----------------------8--------------------6--8--------------------------------------9--8--
D|--------------------------------------------------------------------------------------------------------
A|--------------------------------------------------------------------------------------------------------
E|--------------------------------------------------------------------------------------------------------

E|--------16-------11-------9--------11----------16----------------16-11-------------------------
B|-----14-------12-------10-------12----------14----14-------------------14-13-------------------
G|--13-------11-------9--------11----------13----------13-14-13-14-------------14-13----13-------
D|-----------------------------------------------------------------------------------16----14-13-
A|-----------------------------------------------------------------------------------------------
E|-----------------------------------------------------------------------------------------------

E|--16----------16-14-12-11-8--9--11-9--9--11-12-11-11-12-14-12-12-14-16-
B|-----14----14----------------------------------------------------------
G|--------13-------------------------------------------------------------
D|-----------------------------------------------------------------------
A|-----------------------------------------------------------------------
E|-----------------------------------------------------------------------

E|--16----------16-14-12-11-11-9--8-----------------------
B|-----14----14----------------------10-9--7--------------
G|--------13----------------------------------9--8--6--5--
D|--------------------------------------------------------
A|--------------------------------------------------------
E|--------------------------------------------------------

E|--16----------16-14-12-11-11-9--8--------------------------------------------------------------------------------
B|-----14----14----------------------10-9--7--------------------10-9--7--------------------------------------------
G|--------13----------------------------------9--8--6--5--6--5-----------9--8--6--5--6--5--------5--8--9--8--6-----
D|-----------------------------------------------------------------------------------------6-----------------------
A|-----------------------------------------------------------------------------------------------------------------
E|-----------------------------------------------------------------------------------------------------------------

E|-----------4-----------4-----------4-----------4-----------4-----------4-----------4-----------4--
B|--------5-----------5-----------5-----------5-----------5-----------5-----------5-----------5-----
G|-----6-----------6-----------6-----------6-----------6-----------6-----------6-----------6--------
D|--------------------------------------------------------------------------------------------------
A|--4-----------4-----------------------0-----------4-----------4-----------------------0-----------
E|--------------------------4-----------------------------------------------4-----------------------

E|--------------------------------------------------------------------
B|--------------------------------------------------------------------
G|--------------------------------------------------------------------
D|--6-----------6-----------6-----------6-----------6-----------8-----
A|--4--4--4--4--4--4--4--4--4--4--4--4--4--4--4--4--4--4--4--4--6--7--
E|--------------------------------------------------------------------

E|--------------------------------------------------------------
B|--------------------------------------------------------------
G|--------------------------------------------------------------
D|--6-----------------------------------------------------------
A|--4--7--6--6--7--6--6--7--6--7-----3--4--3--------3--4--3-----
E|--------------------------------------------5--------------4--



Song lyrics here 
E|-----------
B|-----------
G|-----------
D|--6--4--2--
A|--4--2--0--
E|-----------

Use manual mode to free up cursor. Paste any tab in acousterr tab maker and we'll play it !!!









tabs and chords, guitar tabs, music transcription, music technology, deep learning, music information retrieval, transcribe into tabs & chords, chordify, music renditions, songsterr, reverbnation, tabulature, bollywood chords, ultimate guitar, yousician, guitar lessons, acoustic guitar, electric guitar, guitar tuner, 911 tabs