Guitar Tabs for New

(/) Slide Up  (\) Slide Down  (h) Hammer On  (p) Pull Off  (b) Bend (r) Release (v) Vibrato (x) Muted

Tabs for Song : 
BPM : 200

Song lyrics here 
E|--------------------------------------------------------------------------
B|--------------------------------------------------------------------------
G|--7-----------------------7-----------------------7-----------------------
D|--------7-----------------------7-----------------------7-----------------
A|--------------7-----------------------7-----------------------7-----------
E|-----7-----7-----7--5--7-----7-----7-----7--5--7-----7-----7-----7--5--7--

E|--
B|--
G|--
D|--
A|--
E|--

Song lyrics here 
E|--
B|--
G|--
D|--
A|--
E|--

Use manual mode to free up cursor. Paste any tab in acousterr tab maker and we'll play it !!!

Guitar Tabs for New






E|--
B|--
G|--
D|--
A|--
E|--

E|--------------------------------------------------------------------------
B|--------------------------------------------------------------------------
G|--5-----------------------5-----------------------5-----------------------
D|--------5-----------------------5-----------------------5-----------------
A|--------------5-----------------------5-----------------------5-----------
E|-----5-----5-----5--3--5-----5-----5-----5--3--5-----5-----5-----5--3--5--


E|--
B|--
G|--
D|--
A|--
E|--

Guitar Tabs for New






E|--
B|--
G|--
D|--
A|--
E|--

E|--
B|--
G|--
D|--
A|--
E|--


E|--
B|--
G|--
D|--
A|--
E|--

tabs and chords, guitar tabs, music transcription, music technology, deep learning, music information retrieval, transcribe into tabs & chords, chordify, music renditions, songsterr, reverbnation, tabulature, bollywood chords, ultimate guitar, yousician, guitar lessons, acoustic guitar, electric guitar, guitar tuner, 911 tabs