New Song - Bass Tabs

(/) Slide Up  (\) Slide Down  (h) Hammer On  (p) Pull Off  (b) Bend (r) Release (v) Vibrato (x) Muted

Tabs for Song : 
BPM : 225



Verse

G|--------------------------------------------------------
D|--------------------------------------------------------
A|--5--5--5--5--5--7--7--7--7--7--------------------------
E|--------------------------------5--7--7--7--5--7--7--7--

G|----------------------------------------------------
D|--------------------------------------------------------
A|--5--5--5--5--5--7--7--7--7--7--------------------------
E|--------------------------------5--7--7--7--5--7--7--7--
    
G|--------------------------------------------------------
D|--------------------------------------------------------
A|--5--5--5--5--5--7--7--7--7--7--------------------------
E|--------------------------------5--7--7--7--5--7--7--7--


Chorus

G|--------------------------------------------------
D|--------------------------------------------------
A|--5--5--5--5--------------------------------------
E|--------------7--7--7--7--5--5--5--5--5--5--5--5--

G|--------------------------------------------------
D|--------------------------------------------------
A|--5--5--5--5--------------------------------------
E|--------------7--7--7--7--2--2--2--2--5--5--5--5--

G|--------------------------------------------------
D|--------------------------------------------------
A|--5--5--5--5--------------------------------------
E|--------------7--7--7--7--5--5--5--5--5--5--5--5--


Verse
G|------------------------------------------------------
D|-----------------------------------------------------
A|--5--5--5--5--7--7--7--7--7--------------------------
E|-----------------------------5--7--7--7--5--7--7--7--

G|----------------------------------------------------
D|--------------------------------------------------------
A|--5--5--5--5--5--7--7--7--7--7--------------------------
E|--------------------------------5--7--7--7--5--7--7--7--
    
G|----------------------------------------------------------
D|--------------------------------------------------------
A|--5--5--5--5--5--7--7--7--7--7--------------------------
E|--------------------------------5--7--7--7--5--7--7--7---

Chorus
G|--------------------------------------------------
D|--------------------------------------------------
A|--5--5--5--5--------------------------------------
E|--------------7--7--7--7--5--5--5--5--5--5--5--5--

G|--------------------------------------------------
D|--------------------------------------------------
A|--5--5--5--5--------------------------------------
E|--------------7--7--7--7--2--2--2--2--5--5--5--5--

G|--------------------------------------------------
D|--------------------------------------------------
A|--5--5--5--5--------------------------------------
E|--------------7--7--7--7--5--5--5--5--5--5--5--5--

Bridge
G|--------------------------------------------------------------
D|--------------------------------------------------------------
A|--5--7--7--7--7--5--7--7--7--7--------------------------------
E|--------------------------------5--7--7--7--7--5--7--7--7--7--

G|--G|--------------------------------------------------------
D|-----------------------------------------------------------
A|--5--7--7--7--7--5--7--7--7--7-----------------------------
E|--------------------------------5--7--7--7--7--5--7--7--7--

G|--------------------------------------------------------------
D|--------------------------------------------------------------
A|--5--7--7--7--7--5--7--7--7--7--------------------------------
E|--------------------------------5--7--7--7--7--5--7--7--7--7--


Final chorus

G|--------------------------------------------------
D|--------------------------------------------------
A|--5--5--5--5--------------------------------------
E|--------------7--7--7--7--5--5--5--5--5--5--5--5--

G|--------------------------------------------------
D|--------------------------------------------------
A|--5--5--5--5--------------------------------------
E|--------------7--7--7--7--2--2--2--2--5--5--5--5--

G|--------------------------------------------------
D|--------------------------------------------------
A|--5--5--5--5--------------------------------------
E|--------------7--7--7--7--5--5--5--5--5--5--5--5--

G|--------------------------------------------------
D|--------------------------------------------------
A|--5--5--5--5--------------------------------------
E|--------------7--7--7--7--2--2--2--2--5--5--5--5--


Use manual mode to free up cursor. Paste any tab in acousterr tab maker and we'll play it !!!
tabs and chords, guitar tabs, music transcription, music technology, deep learning, music information retrieval, transcribe into tabs & chords, chordify, music renditions, songsterr, reverbnation, tabulature, bollywood chords, ultimate guitar, yousician, guitar lessons, acoustic guitar, electric guitar, guitar tuner, 911 tabs