Guitar Tabs for New Shb

(/) Slide Up  (\) Slide Down  (h) Hammer On  (p) Pull Off  (b) Bend (r) Release (v) Vibrato (x) Muted

Tabs for Song : 

RIFF 1

E|-----------------------------
B|-----------------------------
G|-----------------------------
D|-----------------------------
A|--------------6--5-----------
D|--0-----1-----------6--5--3--



RIFF 2

E|-----------------------------------------------------------------------------------------------------
B|-----------------------------------------------------------------------------------------------------
G|-----------------------------------------------------------------------------------------------------
D|-----------------------------------------------------------------------------------------------------
A|-----------------------------------------------------------------------------------------------------
D|--2--1-----3--2-----2--1-----3--2-----0--0--0--0-----2--1-----3--2-----2--1-----3--1-----1--1--1--1--


RIFF 3

E|-----------------------------------------------------------------------------------------------
B|-----------------------------------------------------------------------------------------------
G|-----------------------------------------------------------------------------------------------
D|-----------------------------------------------------------------------------------------------
A|-----------------------------------------------------------------------------------------------
D|--3--2--0--1--2-----3--2--0--1--2-----0--1--2-----3--2--0--1--2-----3--2--0--1--2-----0--1--0--





tabs and chords, guitar tabs, music transcription, music technology, deep learning, music information retrieval, transcribe into tabs & chords, chordify, music renditions, songsterr, reverbnation, tabulature, bollywood chords, ultimate guitar, yousician, guitar lessons, acoustic guitar, electric guitar, guitar tuner, 911 tabs