Guitar Tabs for New Shb

(/) Slide Up  (\) Slide Down  (h) Hammer On  (p) Pull Off  (b) Bend (r) Release (v) Vibrato (x) Muted



INTRO / BREAK / OUTRO

E|-----------------------------------------------------------------------------------------------------
B|-----------------------------------------------------------------------------------------------------
G|-----------------------------------------------------------------------------------------------------
D|-----------------------------------------------------------------------------------------------------
A|--0-----0--0--1--0--1-----1--0-----0--3--0--3-----3--0--------------------------6-----6--3-----3--5--
D|--0-----0--0--1--0--1-----1--0-----0--3--0--3-----3--0-----0--0--0--0--0--0-----6-----6--3-----3--5--



COUPLETS
E|--------------------------------------------------
B|--------------------------------------------------
G|--------------------------------------------------
D|--7--5--7--------------------8-----8--5-----5--7--
A|--5--3--5--------------------6-----6--3-----3--5--
D|--------------0--0--0--0--------------------------

E|--------------------------------------------------
B|--------------------------------------------------
G|--------------------------------------------------
D|--7--5--7--------------------5-----5--------------
A|--5--3--5--------------------3-----3--6-----6--5--
D|--------------0--0--0--0--------------6-----6--5--
REFRAIN
E|--------------------------------------------------------
B|--------------------------------------------------------
G|--------------------------------------------------------
D|--------------8--7--------------------------------------
A|--------------6--5--------------6-----5-----6-----5--6--
D|--0--0--0--------------0--0-----6--0--5--0--6-----5--6--

E|--------------------------------------------------------
B|--------------------------------------------------------
G|--------------------------------------------------------
D|--------------8--7--------------------------------------
A|--------------6--5--------------6-----5--------6-----3--
D|--0--0--0--------------0--0-----6--0--5--0--0--6-----3--








Paste any tab in acousterr's tab maker and we'll play it !!!
Now supports capo and sound effects for vibrato/pull-off/hammer/bends/mutes etc !!! Checkout help section
tabs and chords, guitar tabs, music transcription, music technology, deep learning, music information retrieval, transcribe into tabs & chords, chordify, music renditions, songsterr, reverbnation, tabulature, bollywood chords, ultimate guitar, yousician, guitar lessons, acoustic guitar, electric guitar, guitar tuner, 911 tabs