Guitar Tabs for New Music

(/) Slide Up  (\) Slide Down  (h) Hammer On  (p) Pull Off  (b) Bend (r) Release (v) Vibrato (x) Muted

Tabs for Song : 

Song lyrics here
E|--------------------------------------------------------------------------------------------------------------------------
B|-----5-----22-------------19----16-------------0--------------21-------------------5--------------------------------------
G|--------22-------------------------5--------------------20-------------------16----------------16-16----15-10----14-9-----
D|--5-----------21-21----19----16-------5--5--------2--2-----16-------19-19-20----4-----1-----12-------12-------15-------14-
A|--------------------20----------------------1--------------------19----------------------16-------------------------------
E|--------------------------------------------------------------------------------------------------------------------------

Song lyrics here
E|-----------------------------------------
B|-----------------------------------------
G|-----10----11----1-----22-11-10-9--11----
D|--11----10----12----22----------------11-
A|-----------------------------------------
E|-----------------------------------------

Paste any tab in acousterr's tab maker and we'll play it !!!
Now supports capo and sound effects for vibrato/pull-off/hammer/bends/mutes etc !!! Checkout help section
tabs and chords, guitar tabs, music transcription, music technology, deep learning, music information retrieval, transcribe into tabs & chords, chordify, music renditions, songsterr, reverbnation, tabulature, bollywood chords, ultimate guitar, yousician, guitar lessons, acoustic guitar, electric guitar, guitar tuner, 911 tabs