Guitar Tabs for My Music, A New Freedom

(/) Slide Up  (\) Slide Down  (h) Hammer On  (p) Pull Off  (b) Bend (r) Release (v) Vibrato (x) Muted

Tabs for Song : 
BPM : 300

E|--2-----2-----2--2--------2--------2--------------------------0--------0--------0--------2--------2--------2--------
B|--3-----3-----3-----3--------3--------3--------2-----2-----2-----2--------2--------2--------2--------2--------2-----
G|--2-----2-----2--------2--------2--------2-----1-----1-----1--------1--------1--------1--------1--------1--------1--
D|--------------------------------------------------------------------------------------------------------------------
A|-----------------------------------------------2-----2-----2--------------------------------------------------------
E|--------------------------------------------------------------------------------------------------------------------

E|--0--------0--------0-----------2---2/5--5---5/10/11/12-12-------12-------12-------0--------0--------0--------5-----
B|-----2--------2--------2--------3---3/6--6---6/11/12/13----13-------13-------13-------13-------13-------13-------6--
G|--------1--------1--------1-----2---2/5--5---5/10/11/12-------12-------12-------12-------12-------12-------12-------
D|--------------------------------------------------------------------------------------------------------------------
A|--------------------------------------------------------------------------------------------------------------------
E|--------------------------------------------------------------------------------------------------------------------

E|--5--------4--------3--------2--------2--------0-----3--------2-----0-----3-----0-----0-----3-----2-----3-----2--
B|-----6--------5--------4--------3-----3--------0-----0--------3-----0-----0-----0-----0-----0-----3-----0-----0--
G|--------5--------4--------3--------2--2--------0-----0--------2-----0-----0-----0-----1-----0-----2-----0-----0--
D|--------------------------------------0--------2-----0--------0-----2-----0-----2-----2-----0-----0-----0-----0--
A|--------------------------------------0--------2-----2--------0-----2-----2-----2-----2-----2-----0-----2-----1--
E|-----------------------------------------------0-----3--------------0-----3-----0-----0-----3-----------3-----2--

E|-----1-----0--------------------0-----------1-----0-----------0-----------1-----0-----------0-----------1-----0--
B|-----0-----0-----------------------------------------------------------------------------------------------------
G|-----0-----0-----------------------------------------------------------------------------------------------------
D|-----0-----0--------------------3--------------------------------------------------------------------------------
A|-----0-----0--------------------------------------------------3--------------------------------------------------
E|-----1-----0--------------------------------------------------------------------------------3--------------------

E|-----------------3-----------------------5-----------------------7-----------------------9-----------------------
B|--3-----1-----------------3-----1-----------------3-----1-----------------5-----3-----------------7-----5--------
G|-----------------------------------------------------------------------------------------------------------------
D|-----------------------------------------------------------------------------------------------------------------
A|-----------------3-----------------------------------------------------------------------------------------------
E|-----------------------------------------3-----------------------5-----------------------7-----------------------

E|--11-------12-------13\0-----------0--
B|-----------------------------------1--
G|-----------------------------------2--
D|-----------------------------------2--
A|-----------------------------------0--
E|--9--------10-------11\0-----------0--



Use manual mode to free up cursor. Paste any tab in acousterr tab maker and we'll play it !!!
tabs and chords, guitar tabs, music transcription, music technology, deep learning, music information retrieval, transcribe into tabs & chords, chordify, music renditions, songsterr, reverbnation, tabulature, bollywood chords, ultimate guitar, yousician, guitar lessons, acoustic guitar, electric guitar, guitar tuner, 911 tabs