Guitar Tabs for New

(/) Slide Up  (\) Slide Down  (h) Hammer On  (p) Pull Off  (b) Bend (r) Release (v) Vibrato (x) Muted

Tabs for Song : 

Song lyrics here
E|--------------------------------------------------------------------------------------------
B|--------------------------------------------------------------------------------------------
G|--------------------------------------------------------------------------------------------
E|--------------4-----------------5-----------------4-----------------7--------5--------4-----
B|--------------------------------------------------------------------------------------------
E|--0--0-----5--------0--0-----5--------0--0-----5--------0--0-----5--------5--------5--------



Song lyrics here
E|--------------------------------------------------------------------------------------------
B|--------------------------------------------------------------------------------------------
G|--------------------------------------------------------------------------------------------
E|--------------4-----------------5-----------------4-----------------7--------5--------4-----
B|--------------------------------------------------------------------------------------------
E|--0--0-----5--------0--0-----5--------0--0-----5--------0--0-----5--------5--------5--------

E|--x--x--------------x--x--------------x--x-----x--------------------------
B|--x--x--------------x--x--------------x--x-----x--------------------------
G|--x--x--------------x--x--------------x--x-----x--------------------------
E|--x--x-----5--4-----x--x-----5--5-----x--x-----x--7-----5--5-----5--4-----
B|--x--x-----5--4-----x--x-----5--5-----x--x-----x--7-----5--5-----5--4-----
E|--x--x-----5--4-----x--x-----5--5-----x--x-----x--7-----5--5-----5--4-----

E|--x--x--------------x--x--------------x--x-----x--------------------------
B|--x--x--------------x--x--------------x--x-----x--------------------------
G|--x--x--------------x--x--------------x--x-----x--------------------------
E|--x--x-----5--4-----x--x-----5--5-----x--x-----x--7-----5--5-----5--4-----
B|--x--x-----5--4-----x--x-----5--5-----x--x-----x--7-----5--5-----5--4-----
E|--x--x-----5--4-----x--x-----5--5-----x--x-----x--7-----5--5-----5--4-----



B|--
G|--
E|--
B|--
E|--


Now supports capo and sound effects for vibrato/pull-off/hammer/bends/mutes etc !!! Checkout help section
tabs and chords, guitar tabs, music transcription, music technology, deep learning, music information retrieval, transcribe into tabs & chords, chordify, music renditions, songsterr, reverbnation, tabulature, bollywood chords, ultimate guitar, yousician, guitar lessons, acoustic guitar, electric guitar, guitar tuner, 911 tabs